Табулатура Metallica | My Frend of Misery гитара табулатуры уроки тексты песен Metallica текст lyrics песня аккорды песни ноты нота электрогитара струна  
   А Б В Г Д Е Ж З И К Л М Н О П Р С Т У Ф Х Ч Ш Ы Э Ю Я       Разные песни
1-9 A B C D E F G H I J K L M N O P Q R S T U V W Y Z      Все исполнители in english

    



группа Metallica, Табулатура песни My Frend of Misery

Группа: Metallica - другие аккорды (225),   о группе (32 статей),   диски (11),   фотографии (49)
Табулатура песни: My Frend of Misery
Просмотров: 3871
Прислал: ~R!P[Str]~




    
bass intro

1a)                     1b)

G--2-2---2              --------------------------------2

D--3-3---2 twice before -3---3---3---3----2---2---2---2--

A--0-0---0              ---5---0---5---0----3---0---3----

E---------              ---------------------------------

intro and verse





2)

G---------------2-2-2----------

D------5--------2-2-2----5-----

A--0-3--------5-0-0-0--3----5-2

E---------0-3---------------3-0

...save the world





3)

D-----------------2-2--2-4-4------------------2-2-3-4--

A--4-4-0-2-3-4-2--0-0--0-2-2---4-4-0-2-3-4-2--0-0-1-2-2  twice then

E--2-2---------0---------------2-2---------0----------0

Misery...





4)

D----------------------------2

A--3-------2---3-3-------2---0

E--0-0-0-0-0-0-0-0-0-0-0-0-0--
Узнай ВСЕ о своем друге в ВК или FB
pm ..... . ..... 5a) full full e---------------------------- -5--5~~------5--5~~- B--------5------5------------ -------5-----------5 G-----5------------7--5--7~~~ twice ----------5--------- D--7~~------7~~~------------- -------------------- A---------------------------- -------------------- E---------------------------- -------------------- 5b) full e-----------0-------------0 B--------3--3-------------1 G------2-------2------2-2-- D----3--------------2------ A--0--------------0-------- E-------------------------- pre-solo clean (actually recorded on a telecaster with a B-bender) 6) D----------------------------- A--4-4---x-x-x-2-3-4-4-------5 E--2-2---x-x-x-0-1-2-2---x-0-3 end

искать в аптеке
список лекарств

Фреза со сменными пластинами

Сменные пластины прямо со склада. Все виды в наличии, звоните

alycoservis.ru

www.zukm.ru

Материал углеродный

zukm.ru








О сайтеАккордыХит-парадПоискУроки ФорумыИщу песню
ПрограммыСвежачок-сПодпискаСтатьи
Яндекс.Метрика