Табулатура Paradise Lost | True Belief (2) гитара табулатуры уроки тексты песен Paradise Lost текст lyrics песня аккорды песни ноты нота электрогитара струна  
   А Б В Г Д Е Ж З И К Л М Н О П Р С Т У Ф Х Ч Ш Ы Э Ю Я       Разные песни
1-9 A B C D E F G H I J K L M N O P Q R S T U V W Y Z      Все исполнители in english

    



группа Paradise Lost, Табулатура песни True Belief (2)

Продолжаем грести бабос на ботах в Telegram.
Только в этот раз есть вариант автоматизировать это дело, привлекая рефералов. Вы можете заработать если »

Группа: Paradise Lost - другие аккорды (60),   о группе (5 статей),   диски (9),   фотографии (25)
Табулатура песни: True Belief (2)
Просмотров: 1142
Прислал: Locksmith (slesarev-oleg@chat.ru)




    
Tune down a whole step:



D

A

F

C

G

D



Intro:



Guitar 1:



|-----------------------------------------------------------------------------------------------|

|-----------------------------------------------------------------------------------------------|

|-----------------------------------------------------------------------------------------------|

|----2--------------------2------------------2--------------------------------------------------|

|----2--------------------2------------------2-------------------7------------------5----------|

|----0--------------------0------------------0-------------------5------------------3----------|



Guitar 2: ?



Verse:



|-------------------------------------------------------------------------------------------|

|-------------------------------------------------------------------------------------------|

|-------------------------------------------------------------------------------------------|

|-------------------------------------------------------------------------------------------|

|----7--7--7--7--7--7--5--5--5--5--5--7--7--5--5--5--5--5--3--3--3--3--3--2--2------|

|----5--5--5--5--5--5--3--3--3--3--3--5--5--3--3--3--3--3--1--1--1--1--1--0--0------|



P.M

-----------------------------------------------------------------------------------|



Prechorus:



Guitar1:



|-------------------------------------------------------------------------------------------|

|-------------------------------------------------------------------------------------------|

|-----------------2-2-2-2-2-2-5-5-5-5-5-5-4-4-4-4-4-4-----------------2-2-2-2-2-2---|

|---5-5-5-5-5-5-------------------------------------------5-5-5-5-5-5-5-----------------|

|-------------------------------------------------------------------------------------------|

|-------------------------------------------------------------------------------------------|

Продолжаем грести бабос на ботах в Telegram.
Только в этот раз есть вариант автоматизировать это дело, привлекая рефералов. Вы можете заработать если »

Chorus: |-------------------------------------------------------------------------------------------| |-------------------------------------------------------------------------------------------| |---5--4--5--4--5--4--5--4--5--4--5--4--4--2--4--2--4--2--4--2--4--2--1--------------| |-------------------------------------------------------------------------------------------| |-------------------------------------------------------------------------------------------| |-------------------------------------------------------------------------------------------| Bridge: |-------------------------------------------------------------------------------------------| |-------------------------------------------------------------------------------------------| |-------------------------------------------------------------------------------------------| |-----4-----4----7-----------7----9---9--9------------------------------------------------| |-----2-----2----5----\\-\\----5----7---7--7----10--9--10--9--10--9--10--9---------------| |----------------------\\-\\-------------------------------------------------------------------| |-------------------------------------------------------------------------------------------| |-------------------------------------------------------------------------------------------| |-------------------------------------------------------------------------------------------| |-----2-----2----5-----------5----7---7--7------------------------------------------------| |-----0-----0----3----\\-\\----3----5---5--5----8--7--8--7--8--7--8--7-------------------| |----------------------\\-\\------------------------------------------------------------------| Outro: |------^---------------------------------------------------------------------------------| |-----9-10--10--12--13--12----13--13--12--10--10--13--13--12--10-~-------------| |------------------------------12-------------------------------------------------------| |----------------------------------------------------------------------------------------| |----------------------------------------------------------------------------------------| |----------------------------------------------------------------------------------------| |------^--------------------------------------------------------------------------------| |-----9-10--10--12--13--12----13--13--12--10--10--13--13--12--10--10--10-~---| |------------------------------12-------------------------------------------------------| |----------------------------------------------------------------------------------------| |----------------------------------------------------------------------------------------| |----------------------------------------------------------------------------------------| The End

лекарство в аптеке
список лекарств






О сайтеАккордыХит-парадПоискУроки ФорумыИщу песню
ПрограммыСвежачок-сПодпискаСтатьи
Яндекс.Метрика