Аккорды Король и Шут | Ведьма и осел гитара табулатуры уроки тексты песен Король и Шут текст lyrics песня аккорды песни ноты нота электрогитара струна  
   А Б В Г Д Е Ж З И К Л М Н О П Р С Т У Ф Х Ч Ш Ы Э Ю Я       Разные песни
1-9 A B C D E F G H I J K L M N O P Q R S T U V W Y Z      Все исполнители in english

    



группа Король и Шут, Аккорды песни Ведьма и осел

Продолжаем грести бабос на ботах в Telegram.
Только в этот раз есть вариант автоматизировать это дело, привлекая рефералов. Вы можете заработать если »

Группа: Король и Шут - другие аккорды (277),   о группе (10 статей),   диски (9),   фотографии (68)
Аккорды песни: Ведьма и осел
Просмотров: 4737
Подобрал: Henkel (:Henkel82@mail.ru)




    
Проигрыш:

   Am  C  Am  G  Am  C  Am

  H|-5---8--5------5---8--5---|

  G|------------7-------------|



  

Мелодия:

   

  E|------------------|---------------|-----5---------|-----5-7-5-----|

  H|-5-5---5-8-5----5-|-5---5-8-5-----|-------8-5-----|-----------8-5-|

  G|-----7-------7----|---7-------7-5-|-----------7-5-|---------------|

  D|------------------|---------------|-7-7-----------|-7-7-----------|





  E|-----5---------|-----5---------|-----5---------|-----5-7-5-----|

  H|-------8-5---5-|-------8-5-----|-------8-5-----|-----------8-5-|

  G|-----------7---|-----------7-5-|-----------7-5-|---------------|

  D|-7-7-----------|-7-7-----------|-7-7-----------|-7-7-----------|



 

Под припев чтото типа этого



  E|-5-5-----------|---------------|

  H|-----8-6-8-5---|-56565656885---| x2

  G|-------------5-|-------------5-|

 

 

   Am

  В детстве цыганка мне одна

                     F

  Предсказала, будто я,

                    Dm

  Если сильно полюблю,

                   Am

  То любимого сгублю,



  Что измены не прощу

  И жестоко отмщу,

  Hе специально, но со зла

  Превращу его в осла.



  Он очень милым парнем был,

  Hо зачем он изменил?

  И тогда всё началось -

  Предсказание сбылось.



  И внезапно над собой

  Потеряла я контроль,

  И несчастный стал стонать,

Продолжаем грести бабос на ботах в Telegram.
Только в этот раз есть вариант автоматизировать это дело, привлекая рефералов. Вы можете заработать если »

Серой шерстью обрастать. Припев: F G Am Ведьма я, эх, ведьма я - Dm Am Такая вот нелёгкая судьба моя. Силой я наделена, Hо на беду любовь моя обречена. Проигрыш И мой любимый навсегда Жить остался у меня, И за мною по пятам Он ходил и тут и там. Замечала я порой, Как страдает милый мой, И жалела я осла - Hа лугу его пасла. Я всё хотела как-нибуть Облик милого вернуть, Я старалась, как могла, Hо ничем не помогла. Он копытами стучал, По-ослиному кричал И хвостом своим вертел - Человеком быть хотел. Припев Проигрыш Лишь понял он, что обречён До заката своих дней Быть страдающим ослом Под опёкою моей, И в итоге, наконец, Он приблизил свой конец - Что-то выпил, что-то съел И, беняга, околел. Припев 2раза. Проигрыш

поиск лекарств
список лекарств






О сайтеАккордыХит-парадПоискУроки ФорумыИщу песню
ПрограммыСвежачок-сПодпискаСтатьи
Яндекс.Метрика