Табулатура Black Sabbath | Falling off the edge of the world гитара табулатуры уроки тексты песен Black Sabbath текст lyrics песня аккорды песни ноты нота электрогитара струна  
   А Б В Г Д Е Ж З И К Л М Н О П Р С Т У Ф Х Ч Ш Ы Э Ю Я       Разные песни
1-9 A B C D E F G H I J K L M N O P Q R S T U V W Y Z      Все исполнители in english

    



группа Black Sabbath, Табулатура песни Falling off the edge of the world

Продолжаем грести бабос на ботах в Telegram.
Только в этот раз есть вариант автоматизировать это дело, привлекая рефералов. Вы можете заработать если »

Группа: Black Sabbath - другие аккорды (243),   о группе (21 статей),   диски (20),   фотографии (152)
Табулатура песни: Falling off the edge of the world
Просмотров: 2100
Прислал: Pilgrim (pilgrim@akkords.ru)




    
Falling Off The Edge Of The World

Black Sabbath - Mob Rules (1981)





|------------------------------------------

|------------------------------------------

|-------0-2---0-----------------0-2---0----

|-----4-----4-----------------4-----4------

|---2-----------------------2--------------

|-0-----------------------0----------------





|----------0-----0------------------------|--5--------------

|--------0---0---------------5---6--------|----5------------

|------5-------5-----------5-------5------|------5----------

|----7-------------------7-----------7----|--------7--------

|--0-------------------0------------------|-----------------

|-----------------------------------------|-----------------





|------------------------------------------------------------

|------------------------------------------------------------

Продолжаем грести бабос на ботах в Telegram.
Только в этот раз есть вариант автоматизировать это дело, привлекая рефералов. Вы можете заработать если »

|--9-------12-11--7-7-------9-----12\\11----14-----7---------- |--9-------12-11--7-7-------9-----12\\11-12-14-----7---------- |--7-------10--9--5-5-------7-----10\\-9-12-12-----5---------- |--0------------------------0-----------10------------------- |-------------------------------------------------------- |-------------------------------------------------------- |--9-------12-11--7-7--------7-6-5----12---7------------- |--9-------12-11--7-7--------7-6-5----12---7--2---------- |--7-------10--9--5-5--------5-4-3----10---5--2---------- |--0------------------------------------------0---------- |----------------------------------------------------------------------- |----------------------------------------------------------------------- |----------------------------------------------------------5-5-4-------- |-------4-5-4h5p4----------4-5-7--5p4----------4-5-4h5p4---5-5-4-5-4-2-- |-7--7------------5--7--7-------------5--7--7------------5-3-3-2-5-4-2-- |-0------------------0-------------------0-----------------------3-2-0--

найти лекарство
список лекарств






О сайтеАккордыХит-парадПоискУроки ФорумыИщу песню
ПрограммыСвежачок-сПодпискаСтатьи
Яндекс.Метрика