Табулатура Black Sabbath | All Moving Parts Stand Still гитара табулатуры уроки тексты песен Black Sabbath текст lyrics песня аккорды песни ноты нота электрогитара струна  
   А Б В Г Д Е Ж З И К Л М Н О П Р С Т У Ф Х Ч Ш Ы Э Ю Я       Разные песни
1-9 A B C D E F G H I J K L M N O P Q R S T U V W Y Z      Все исполнители in english

    



группа Black Sabbath, Табулатура песни All Moving Parts Stand Still

Продолжаем грести бабос на ботах в Telegram.
Только в этот раз есть вариант автоматизировать это дело, привлекая рефералов. Вы можете заработать если »

Группа: Black Sabbath - другие аккорды (243),   о группе (21 статей),   диски (20),   фотографии (152)
Табулатура песни: All Moving Parts Stand Still
Просмотров: 1262
Прислал: Pilgrim (pilgrim@akkords.ru)




    
All Moving Parts (Stand Still)

Black Sabbath - Technical Ecstacy (1976)





|----------------------------------------------------------------------

|----------------------------------------------------------------------

|-------5------------7---8p7--7p5-----------5-----------7---8p7--7p5---

|-------5------------7---8p7--7p5-----------5-----------7---8p7--7p5---

|--0-----------0---------------------0-------------0-------------------

|-----------------------------------------------------------------------



(alnog w/ volcals)

|-------------------------------------------------------------

|-------------------------------------------------------------

|---------5------------------7-5-----------/9-7-5-7-/9--5-----

|-7-7-7-7---7------7-5-7-7-7---------7-5-7----------------7---

|-------------------------------------------------------------

|-------------------------------------------------------------





\\\"Just like his...\\\"

|-----------------------||-----------------------------------

|-----------------------||-----------------------------------

|--5--------7-------9---||--9------7------5------7-----------

|--5--------7-------9---||--9------7------5------7-----------

|--3--------5-------7---||--77777--55555--33333--55555-------

Продолжаем грести бабос на ботах в Telegram.
Только в этот раз есть вариант автоматизировать это дело, привлекая рефералов. Вы можете заработать если »

|-----------------------||----------------------------------- |------------------------------------------------------------- |------------------------------------------------------------- |------------3~-----------5^-5-------------3~-----------5^-5-- |----3-5-3-5--------3-5-3----------3-5-3-5--------3-5-3------- |--5--------------5--------------5--------------5------------- |------------------------------------------------------------- |------------------------------------------------------------ |------------------------------------------------------------ |------------------------------------------------------------ |----7-----5-------4-----3----------7-----5-------4-----3---- |--5---5-3---3---2---2-1---1------5---5-3---5---2---2-1---1-- |------------------------------------------------------------ |---------------------------------------------------------- |---------------------------------------------------------- |-9---9-9-9--12-12-12--------9---9-9-9--12-12-12----------- |-9---9-9-9--12-12-12--------9---9-9-9--12-12-12----------- |-7---7-7-7--10-10-10--------7---7-7-7--10-10-10----------- |----------------------------------------------------------

искать в аптеке
список лекарств






О сайтеАккордыХит-парадПоискУроки ФорумыИщу песню
ПрограммыСвежачок-сПодпискаСтатьи
Яндекс.Метрика