Табулатура Black Sabbath | Country Girl гитара табулатуры уроки тексты песен Black Sabbath текст lyrics песня аккорды песни ноты нота электрогитара струна  
   А Б В Г Д Е Ж З И К Л М Н О П Р С Т У Ф Х Ч Ш Ы Э Ю Я       Разные песни
1-9 A B C D E F G H I J K L M N O P Q R S T U V W Y Z      Все исполнители in english

    



группа Black Sabbath, Табулатура песни Country Girl

Продолжаем грести бабос на ботах в Telegram.
Только в этот раз есть вариант автоматизировать это дело, привлекая рефералов. Вы можете заработать если »

Группа: Black Sabbath - другие аккорды (243),   о группе (21 статей),   диски (20),   фотографии (152)
Табулатура песни: Country Girl
Просмотров: 1682
Прислал: Pilgrim (pilgrim@akkords.ru)




    
Country Girl

Black Sabbath - Mob Rules (1981)



|---------------------------------------|

|---------------------------------------|

|---------------------------------------|

|------------5-5------------------------|

|--5h7-7-5h7-----7-5h7p5----------------|

|------------------------8---7---3---2--|





|--------------------------------------------------|

|--------------------------------------------------|

|--------------------------------------------------|

|-------------------------------------------5------|

|-----------------------------------------------9--|

|--5h7-7-7--5h7-8--7---5h7--8---7---8---7----------|





|-----------||------------------------------------|

|-----8--7--||-----8-----------------5------------|

|---9-9--7--||-----9-----------------4------------|

|--9--9--7--||---9-------7-5-------5--------------|

|-7---9--5--||-7-------5-----54--3---------9-10-9-|

|-----------||---------------------------7--------|

Продолжаем грести бабос на ботах в Telegram.
Только в этот раз есть вариант автоматизировать это дело, привлекая рефералов. Вы можете заработать если »

~~~~~~ |----------------------------------------------------------------| |----------------------------121512--12--------------------------| |----------------------12-16^------14--1514p12-14-14p12--12------| |-------------14---------------------------------------14--14p12-| |-12/14-14\\\\12----------------------------------------------------| |----------------------------------------------------------------| |-------------------------------------------------------| |-----------------------------------------121515----15^-| |-----------------------14^1412------12h14-------16^----| |------------------------------141414-------------------| |-14p12h14p12 14^^14------------------------------------| |-------------------------------------------------------| |-15-121512----------------------------------------------------| |-----------15p12-15p12--121512--------------------------------| |----------------------14-------141214121412-------------------| |-------------------------------------------14121412-----------| |---------------------------------------------------1412141210-| |--------------------------------------------------------------|

поиск лекарств
список лекарств






О сайтеАккордыХит-парадПоискУроки ФорумыИщу песню
ПрограммыСвежачок-сПодпискаСтатьи
Яндекс.Метрика