Табулатура Ария | Возьми мое сердце гитара табулатуры уроки тексты песен Ария текст lyrics песня аккорды песни ноты нота электрогитара струна  
   А Б В Г Д Е Ж З И К Л М Н О П Р С Т У Ф Х Ч Ш Ы Э Ю Я       Разные песни
1-9 A B C D E F G H I J K L M N O P Q R S T U V W Y Z      Все исполнители in english

    



группа Ария, Табулатура песни Возьми мое сердце

Продолжаем грести бабос на ботах в Telegram.
Только в этот раз есть вариант автоматизировать это дело, привлекая рефералов. Вы можете заработать если »

Группа: Ария - другие аккорды (629),   о группе (7 статей),   диски (18),   фотографии (92)
Табулатура песни: Возьми мое сердце
Просмотров: 12822
Подобрал: Artyom (ArtyomRizhov@icqmail.com)




    
   Dm (вроде :)                                           -

1|------10-----------10------------5------------4-------|  |

2|----10------------9------------6------------5---------|  |

3|--10------------9------------7------------7-----------|   \\\\

4|-0------------0------------0------------0-------------|   / 2 раза

5|------------------------------------------------------|  |

6|------------------------------------------------------|  |

                                                          -



   Dm

1|-------1------------0------------5------------4-------|

2|-----3------------3------------6------------5---------|

3|---2------------1------------7------------7-----------|

4|-0------------0------------0------------0-------------|

5|------------------------------------------------------|

6|------------------------------------------------------|

    Слепая ночь легла у ног и не пускает за порог



   Dm

1|-------1------------0------------5------------4-------|

2|-----3------------3------------6------------5---------|

3|---2------------1------------7------------7-----------|

4|-0------------0------------0------------0-------------|

5|------------------------------------------------------|

6|------------------------------------------------------|

    Брожу по дому как во сне, но мне покоя нет нигде



   Gm                          Dm                                           

1|-------3-----------3---------------1---------1--------| 

2|-----3---------------3-----------3-------------3------| 

3|---3-------------------3-------2-----------------2----| 

4|-5-----------4---------------0------------------------| 

5|------------------------------------------------------| 

6|---------------------------------------4--------------| 

    Тупая боль пробьет висок, и пальцы лягут на курок



 /                                                                       \\\\

/                 Gm                          Dm                          \\\\

|              1|-------3-----------3----------------------------------|   |

|              2|-----3---------------3-------------6---------6--------|   |

|  или так     3|---3-------------------3---------7-------------7------|   |

|(кому как     4|-5-----------4-----------------7-----------------7----|   |

|  удобнее :)  5|-----------------------------5------------------------|   |

|              6|---------------------------------------4--------------|   |

 \\\\                 Тупая боль пробьет висок, и пальцы лягут на курок       /

  \\\\                                                                       /



   Gm                              A#        A7

1|-------3---------------3-------------1---------0------|

2|-----3-------------------3-----------3--------2-------|

3|---3-----------------------3-------3---------0--------|

4|-5-------------4-----------------3----------2---------|

5|-------------------------------------------0----------|

6|------------------------------------------------------|

    А в зеркалах качнется призрак, призрак любви...





    Припев:



       (A7)        Dm                 F

        Возьми мое сердце, возьми мою душу!



                 Gm                          C

        Я так одинок в этот час, что хочу умереть



                   Dm                    F

        Мне некуда деться, свой мир я разрушил



                      Gm                         C

        По мне плачет только свеча на холодной заре.




Продолжаем грести бабос на ботах в Telegram.
Только в этот раз есть вариант автоматизировать это дело, привлекая рефералов. Вы можете заработать если »

Ты умерла в дождливый день, и тени плыли по воде Я смерть увидел в первый раз, ее величие и грязь В твоих глазах застыла боль - я разделю ее с тобой А в зеркалах качнется призрак, призрак любви... Припев: Возьми мое сердце, возьми мою душу! Я так одинок в этот час, что хочу умереть Мне некуда деться, свой мир я разрушил По мне плачет только свеча на холодной заре. F A# C Я слышу утренний колокол F A# C Он славит праздник F A# C И сыпет медью и золотом Dm C Ты теперь в царстве вечного сна F A# C Я слышу утренний колокол F A# C Он бесов дразнит F A# C И звоном небо расколото Dm C На земле я любил лишь тебя... .............................. (проигрыш) - A# A# | Dm Dm \\\\ C A# / 2 раза C C | - .............................. Я слышу утренний колокол Он славит праздник И сыпет медью и золотом Ты теперь в царстве вечного сна Я слышу утренний колокол Он бесов дразнит И звоном небо расколото На земле я любил лишь тебя... Dm G D 1|------------------10--------10------------3-----------------2-| 2|----------------10---------9------------3-----3------------3--| 3|--------------10---------9------------4------------4------2---| 4|-------------0---------0------------5--------------------0----| 5|--------------------------------------------------------------| 6|--------------------------------------------------------------| Возьми мое сердце!

искать в аптеке
список лекарств






О сайтеАккордыХит-парадПоискУроки ФорумыИщу песню
ПрограммыСвежачок-сПодпискаСтатьи
Яндекс.Метрика