Табулатура Rammstein | Engel 3 гитара табулатуры уроки тексты песен Rammstein текст lyrics песня аккорды песни ноты нота электрогитара струна  
   А Б В Г Д Е Ж З И К Л М Н О П Р С Т У Ф Х Ч Ш Ы Э Ю Я       Разные песни
1-9 A B C D E F G H I J K L M N O P Q R S T U V W Y Z      Все исполнители in english

    



группа Rammstein, Табулатура песни Engel 3

Группа: Rammstein - другие аккорды (48),   о группе (7 статей),   диски (19),   фотографии (23)
Табулатура песни: Engel 3
Просмотров: 3039
Подобрал: Bim (:mbim@mail.ru)




    
Engel



Drop D Tuning

|-e-|

|-B-|

|-G-|

|-D-|

|-A-|

|-D-|





Whistle Intro (this sounds radical with wah or delay)

|--10---------------------------|-10-------------------------|

|------10-13----10-12------8-10-|-----10-13----10-12-----8---|

|-------------------------------|--------------------------7-|

|-------------------------------|----------------------------|

|-------------------------------|----------------------------|

|-------------------------------|----------------------------|



Main Guitar Part                     3x

||-----------------------------------||---------------------------------|

||*---------------------------------*||---------------------------------|

||-----------------------------------||---------------------------------|

||-----------------------------------||---------------------------------|

||*-3h5-----6p5-----3h5---3h5---6p5-*||-3h5-----6p5-----3h5---3h5-3-3-3-|

||------0-0-----0-0-----0-----0------||-----0-0-----0-0-----0-----3-3-3-|

        pm.]    pm.]    pm    pm            pm.]    pm.]    pm    pm...]



Chorus

there really is no guitar part here, but you can strum these chords

(clean guitar w/ effects)

|------------------------------------|--------------------------|

Продолжаем грести бабос на ботах в Telegram.
Только в этот раз есть вариант автоматизировать это дело, привлекая рефералов. Вы можете заработать если »

|------------------------------------|--------------------------| |-7-------5--------------------------|-7------9------12---------| |-7-------5-------5--------0---------|-7------9------12---------| |-5-------3-------5--------0---------|-5------7------10---------| |-----------------5--------0---------|--------------------------| just as the clouds... alone in fear... tabbed by Rebel X Ramms+ein tabs: http://www.geocities.com/SunsetStrip/Pit/2594/index.html Wer zu Lebzeit gut auf Erden wird nach dem Tod ein Engel werden den Blick \\\'gen Himmel fragst du dann warum man sie nicht sehen kann erst wenn die Wolken schlafengehn kann man uns am Himmel sehn wir haben Angst und sind allein Gott weiss ich will kein Engel sein Sie leben hinterm Horizont getrennt von uns unendlich weit sie mussen sich an Sterne krallen (ganz fest) damit sie nicht vom Himmel fallen erst wenn die Wolken schlafengehn kann man uns am Himmel sehn wir haben Angst und sind allein Gott weiss ich will kein Engel sein








О сайтеАккордыХит-парадПоискУроки ФорумыИщу песню
ПрограммыСвежачок-сПодпискаСтатьи
Яндекс.Метрика