Табулатура ДДТ | Донести синь гитара табулатуры уроки тексты песен ДДТ текст lyrics песня аккорды песни ноты нота электрогитара струна  
   А Б В Г Д Е Ж З И К Л М Н О П Р С Т У Ф Х Ч Ш Ы Э Ю Я       Разные песни
1-9 A B C D E F G H I J K L M N O P Q R S T U V W Y Z      Все исполнители in english

    



группа ДДТ, Табулатура песни Донести синь

Продолжаем грести бабос на ботах в Telegram.
Только в этот раз есть вариант автоматизировать это дело, привлекая рефералов. Вы можете заработать если »

Группа: ДДТ - другие аккорды (189),   о группе (9 статей),   диски (7),   фотографии (16)
Табулатура песни: Донести синь
Просмотров: 2962
Подобрал: Антон (anton02@pisem.net)




    
1 ------------------------------------------------------------------------------

2 ----------------3-----------------------------------------------------------

3 ------------2------2----------------2-----------------0----------------0----4
--------0------------------------2-----2-----------0-----0----------0-----0-5
-----------------------------0----------------------------------------------

6 -----------------------------------------------3----------------3-----------



Это – вступление 

Такой же куплет и проигрыш.











1 ------------------------------------------------------------------------------

2 -----------------3------------------------------------------------1-----------

3 -------------2------2--------------------0------------------0----------0----  4
--------0-----------------------------2-----2------------2-----2-----2---2----

Продолжаем грести бабос на ботах в Telegram.
Только в этот раз есть вариант автоматизировать это дело, привлекая рефералов. Вы можете заработать если »

5 ------------------------------------------------------3----------------------- 6 --------------------------------0--------------------------------------------- Да утра , да утра 1 ------------------------------------------------------------------------------ 2 ------------------------------------------------------------------------------ 3 -----------------0-------------------------0----------------------2-------- 4 -------------2------2-------------------0-----0-----------------2-----2------ 5 ------------------------------------------------------------0----------------- 6 --------0------------------------3-------------------------------------------- Да утра плыть.

искать в аптеке
список лекарств






О сайтеАккордыХит-парадПоискУроки ФорумыИщу песню
ПрограммыСвежачок-сПодпискаСтатьи
Яндекс.Метрика