Табулатура Агата Кристи | Опиум для никого гитара табулатуры уроки тексты песен Агата Кристи текст lyrics песня аккорды песни ноты нота электрогитара струна  
   А Б В Г Д Е Ж З И К Л М Н О П Р С Т У Ф Х Ч Ш Ы Э Ю Я       Разные песни
1-9 A B C D E F G H I J K L M N O P Q R S T U V W Y Z      Все исполнители

    



группа Агата Кристи, Табулатура песни Опиум для никого

Группа: Агата Кристи - другие аккорды (116),   о группе (6 статей),   диски (18),   фотографии (20)
Табулатура песни: Опиум для никого
Просмотров: 3636




    

  Модный такой заход.                                 Промеж куплету и
         Cm                                           припеву.
|--------8------------------------------------------|-----3---3---3--------
|----7-8--------------------------------------------|-----3---3---3--------
|----------------5-----5---------5------5----.....--|----------------------
|---------------------------------------------------|----------------------
|---------------------------------------------------|----------------------
|---------------------------------------------------|----------------------

  Время от времени появляется такое вот нечто:

|----13-12-11---|
|---------------|
|---------------|
|---------------|
|---------------|
|---------------|

  И еще вот:

|---------------|
|----6-5-4------|
|---------------|
|---------------|
|---------------|
|---------------|

  А теперь...

  Соло. Соблюдены длительности
 G       Cm
   4 и   1 и 2 и 3 и 4   1 и 2 и 3 и 4 и    1 и 2 и 3 и 4 и
|------|---------------|-----------------|------------------|--------------
|--6-5-|-4-------------|(4)--П-----------|-78----78------78-|--------------
|------|---------------|-----а-----------|------------------|--------------
|------|---------------|-----у-----------|------------------|--------------
|------|---------------|-----з-----------|------------------|--------------
|------|---------------|-----а-----------|------------------|--------------


                     Gm/Bb                                Bb
   1 и 2 и 3 и 4 и   1 и 2 и 3 и 4 и   1 и 2 и 3 и 4 и    1 и 2  и 3 и 4 и
|------------------|-10--------------|-----------------|-------1011--------
|-(8)----------6-8-|------78------78-|(8)--------------|-89-------------89-
|------------------|-----------------|-----------------|-------------------
|------------------|-----------------|-----------------|-------------------
|------------------|-----------------|-----------------|-------------------
|------------------|-----------------|-----------------|-------------------


                     Fm7               G7                Cm
  1 и 2 и 3 и 4 и    1 u 2 u 3 u 4 u   1 u 2 u 3 u 4 u   1 u 2 u 3 u 4 u
|(4)----------3-4-|1011--------------|-----------------|------------------|
|-----------------|---------89-------|78---------------|-8-/gliss/---17---|
|-----------------|------------------|-----------------|-8-/gliss/-----21-|

Продолжаем грести бабос на ботах в Telegram.
Только в этот раз есть вариант автоматизировать это дело, привлекая рефералов. Вы можете заработать если »

|-----------------|------------------|-----------------|------------------| |-----------------|------------------|-----------------|------------------| |-----------------|------------------|-----------------|------------------| Gm/Bb Bb 1 u 2 u 3 u 4 u 1 u 2 u 3 u 4 u 1 u 2 u 3 u 4 u 1 u 2 u 3 u 4 u |-------------8---|810------10----10-|(10)---------6---|-8-------8----68--| |(17)-------------|------------------|-----------------|------------------| |-----------------|------------------|-----------------|------------------| |-----------------|------------------|-----------------|------------------| |-----------------|------------------|-----------------|------------------| ------------------|------------------|-----------------|------------------| Fm G 1 u 2 u 3 u 4 u 1 u 2 u 3 u 4 u 1 u 2 u 3 u 4 u 1 u 2 u 3 u 4 u |(8)----------6-8-|-15------13------|-----------------|-------------------| |-----------------|-----------------|-----------------|-------------------| |-----------------|-----------------|-----------------|-------------------| |-----------------|-----------------|-12--------------|-5/glissando/17----| |-----------------|-----------------|-------------6-8-|-------------------| |-----------------|-----------------|-----------------|-------------------| В последнем припеве такие соляки: Gm/Bb G Cm c тобой встретимся 1 u 2 u 3 u 4 u 1 и 2 и 3 и 4 и 1 |-----------------|-----------------|-----------------|-------------------| |-----------------|-3---------------|-------------6-5-|-4-----------------| |-----------------|---------------0-|(0)--------------|-------------------| |-----------------|-----------------|-----------------|-------------------| |-----------------|-----------------|-----------------|-------------------| |-----------------|-----------------|-----------------|-------------------| Gm/Bb G Cm с тобой встретимся 1 u 2 u 3 u 4 u 1 u 2 u 3 u 4 u 1 |-----------------|-3---------------|-----------------|------| |-----------------|---------------3-|(3)----------6-5-|-4----| |-----------------|-----------------|-----------------|------| |-----------------|-----------------|-----------------|------| |-----------------|-----------------|-----------------|------| |-----------------|-----------------|-----------------|------| Gm/Bb G Cm умрем весело 1 u 2 u 3 u 4 u 1 и 2 и 3 и 4 и 1 |-----------------|-3---------------|-----------------|------| |-----------------|---------------3-|(3)----------6-5-|-4----| |-----------------|-----------------|-----------------|------| |-----------------|-----------------|-----------------|------| |-----------------|-----------------|-----------------|------| |-----------------|-----------------|-----------------|------|




Error: Incorrect password!




О сайтеАккордыХит-парадПоискУроки ФорумыИщу песню
ПрограммыСвежачок-сПодпискаСтатьи
Яндекс.Метрика