Табулатура Ария | Кровь за кровь гитара табулатуры уроки тексты песен Ария текст lyrics песня аккорды песни ноты нота электрогитара струна  
   А Б В Г Д Е Ж З И К Л М Н О П Р С Т У Ф Х Ч Ш Ы Э Ю Я       Разные песни
1-9 A B C D E F G H I J K L M N O P Q R S T U V W Y Z      Все исполнители in english

    



группа Ария, Табулатура песни Кровь за кровь

Продолжаем грести бабос на ботах в Telegram.
Только в этот раз есть вариант автоматизировать это дело, привлекая рефералов. Вы можете заработать если »

Группа: Ария - другие аккорды (629),   о группе (7 статей),   диски (18),   фотографии (92)
Табулатура песни: Кровь за кровь
Просмотров: 7400




    

Intro :

E-------------------------------------|------------------------------|
H----8---7----------------------------|---7--------------------------|
G---9--------9---7-------9------------|---7---9---7----------8-------|
D--9-------------------10-------------|---7-----------10----9--------|
A--------------------10---------------|--------------------9---------|
E-------------------------------------|------------------------------|

E-------------------------------------|-----------------------------||
H----8---7-------8------10--8---------|--7--8--7--8--7h8p7----------||
G---9--------9---------9-----------9--|--7------------------7-----9-||
D--9-----------------10----------10---|--7-----------------------9--||
A------------------------------10-----|------------------------10---||
E-------------------------------------|-----------------------------||

Main riff :

E-------------------------------------|-----------------------------------|
H-------------------------------------|-----------------------------------|
G-------------------------------------|-----------------------------------|
D--7---------8---------7--------------|-----------------------------------|
A-----8--5------8--5------8--5---5----|--5--5-----5--7--8--7--5h7p5-----5-|
E-------------------------------------|--------8---------------------8----|

E-------------------------------------|-----------------------------------|
H-------------------------------------|-----------------------------------|
G-------------------------------------|-----------------------------------|
D--7---------8---------7--------------|-----------------------------------|

Продолжаем грести бабос на ботах в Telegram.
Только в этот раз есть вариант автоматизировать это дело, привлекая рефералов. Вы можете заработать если »

A-----8--5------8--5------8--5---5----|--5--5-----5--7--8--7--5h7p5-------| E-------------------------------------|--------8---------------------8--5-| E-------------------------------------|-----------------------------------| H-------------------------------------|-----------------------------------| G-------------------------------------|-----------------------------------| D--7---------8---------7--------------|-----------------------------------| A-----8--5------8--5------8--5---5----|--5--5-----5--7--8--7--5h7p5--8--5-| E-------------------------------------|--------8--------------------------| E-------------------------------------|-----------------------------------| H-------------------------------------|-----------------------------------| G-------------------------------------|-----------------------------------| D--7---------8---------7--------------|---------------------------------7-| A-----8--5------8--5------8--5---5----|--5--5-----5--7--8--7--5h7p5--8----| E-------------------------------------|--------8--------------------------| I verse : G5 A5 Ты готов соpвaться в бой.... Понтий Пилaт E-------------------------------|-----------------------------------------| H-------------------------------|---------------------------------11--10--| G-------------------------------|-----------------------------------------| D---5---------------------------|----------7----------8--7----------------| A---5---------------------------|----------7----8--7--------8--7----------| E---3---------------------------|----------5------------------------------|

искать в аптеке
список лекарств






О сайтеАккордыХит-парадПоискУроки ФорумыИщу песню
ПрограммыСвежачок-сПодпискаСтатьи
Яндекс.Метрика