Табулатура Amorphis | My Kantele (Acoustic) гитара табулатуры уроки тексты песен Amorphis текст lyrics песня аккорды песни ноты нота электрогитара струна  
   А Б В Г Д Е Ж З И К Л М Н О П Р С Т У Ф Х Ч Ш Ы Э Ю Я       Разные песни
1-9 A B C D E F G H I J K L M N O P Q R S T U V W Y Z      Все исполнители in english

    



группа Amorphis, Табулатура песни My Kantele (Acoustic)

Продолжаем грести бабос на ботах в Telegram.
Только в этот раз есть вариант автоматизировать это дело, привлекая рефералов. Вы можете заработать если »

Группа: Amorphis - другие аккорды (26),   о группе (8 статей),   диски (7),   фотографии (20)
Табулатура песни: My Kantele (Acoustic)
Просмотров: 1620




    


Artist: Amorphis
Album:  Elegy
Title: My Kantele (Acoustic)

Great song! And I can proudly say that this is very accurate!!!!

Riff 1-I figured this out by watching the video clip over and  over!

|----------------------------------------------------------------------|
|--3-------3-----------3-----3--------------------------3--------3-----|
|--2--2----0h2p0---------0-----0--------------------------2--------2---|
|--0--0h3--0------3-2------2------3-2h3p2-0--3-2-----0--------0--------|
|-------------------------------------------------3--------------------|
|----------------------------------------------------------------------|

Truly they lie etc.


Then just play these chords...You know the timing...

Am Em C D        P.S:Don't strum the first string in the D chord...

Then Riff 1 again and then chorus again and then comes the fun part...
I don't know what this weird instrument is called but it's huge!!!
Here it is...


|------------------------------8------------------------------------6-------
|---10------10------8-----8------8---8-----8------8------6-----6------6---6-
|------7-------7------7----------------------7------7------7----------------
|-0--------0-------0----0---0------0-----0------0------0-----0----0-----0---
|---------------------------------------------------------------------------

Продолжаем грести бабос на ботах в Telegram.
Только в этот раз есть вариант автоматизировать это дело, привлекая рефералов. Вы можете заработать если »

|--------------------------------------------------------------------------- -------------------------------5-------------------------------------------| ------6------6------5-----5------5--------3-----3----------6---------------| --------7------7------7---------------0-0---0-0-------5------5---5---------| ---0-------0------0-----0----0-----0--------------0-3---3------3-----------| ---------------------------------------------------------------------------| ---------------------------------------------------------------------------| And here are the chords for this section...Timing is really easy --5-----3------1---0----------1------------- --3-----3------3---1----------1------------- --2-----0------2---0----------4------------- --0-----0------0---2----5-----3------------- --------2----------3----5-----3------------- --------3---------------3-----1------------- Play this last riff about a thousand times! Comments, questions, anything: ricochetofstars@hotmail.com

найти лекарство
список лекарств






О сайтеАккордыХит-парадПоискУроки ФорумыИщу песню
ПрограммыСвежачок-сПодпискаСтатьи
Яндекс.Метрика