Басовая табулатура Rammstein | Tier гитара табулатуры уроки тексты песен Rammstein текст lyrics песня аккорды песни ноты нота электрогитара струна  
   А Б В Г Д Е Ж З И К Л М Н О П Р С Т У Ф Х Ч Ш Ы Э Ю Я       Разные песни
1-9 A B C D E F G H I J K L M N O P Q R S T U V W Y Z      Все исполнители in english

    



группа Rammstein, Басовая табулатура песни Tier

Группа: Rammstein - другие аккорды (48),   о группе (7 статей),   диски (19),   фотографии (23)
Басовая табулатура песни: Tier
Просмотров: 2547




    



   Main Riff                                                            
|--------------------------------------------------------------|--------
|--------------------------------------------------------------|--------
|--3h5-----3h5-----6--5--3/5--------3h5-----3h5-----6--8--6\5--|--------
|--------------------------------------------------------------|--------
                                                                        

Chorus                                                                  
------------------------------------------------------------------------
------------------------------------------------------------------------
----------------------0h3--3--3--0h3--3--3h5--5--5--3h5--5--5-----------
3h5--5--5--3h5--5--5-------------------------------------------0h3------
                                                                        

                    Verse Riff                                          
-----------------|-----------------------------------|------------------
-----------------|-----------------------------------|------------------
-----------------|-----------------------------3--3--|------------------
3--3--0h3--3--3--|-----------------------------------|------------------
                                                                        

The main riff is played in between verses and before choruses, and also 
at the beginning.  The verse riff is played during the last verse. 
There is some muted guitar notes followed by 2 C5 chords.




==                       TABLATURE EXPLANATION                        ==


Продолжаем грести бабос на ботах в Telegram.
Только в этот раз есть вариант автоматизировать это дело, привлекая рефералов. Вы можете заработать если »

---------- ---------- ----t--- ----5h8--- Hammeron ----(8)--- Ghost ----6--- Tap ---------- ---------- Note -------- ----5p8--- Pulloff ---------- -------- ---------- ---------- -----p-- ----5/8--- Slide Up -----x---- Dead -----7-- Pop ---------- ---------- Note --s----- ----5\8--- Slide Down ---------- --5----- Slap ---------- ||------|| Repeat -------- ----5~~~-- Vibrato ||*----*|| ---5^--- Bend ---------- ||*----*|| -------- ---------- ||------|| -------- ---------- ---------- -------- -4:------- Time ---------- -------- -4:------- Signature ---------- -------- ---------- ---------- -------- Rhythm: w = whole note W = dotted whole h = half note H = dotted half q = quarter note Q = dotted quarter e = eighth note E = dotted eighth s = sixteenth note S = dotted sixteenth t = 32nd note T = dotted 32nd x = 64th note X = dotted 64th ^ = triplet








О сайтеАккордыХит-парадПоискУроки ФорумыИщу песню
ПрограммыСвежачок-сПодпискаСтатьи
Яндекс.Метрика