Табулатура Rammstein | Spiel Mit Mir гитара табулатуры уроки тексты песен Rammstein текст lyrics песня аккорды песни ноты нота электрогитара струна  
   А Б В Г Д Е Ж З И К Л М Н О П Р С Т У Ф Х Ч Ш Ы Э Ю Я       Разные песни
1-9 A B C D E F G H I J K L M N O P Q R S T U V W Y Z      Все исполнители in english

    



группа Rammstein, Табулатура песни Spiel Mit Mir

Группа: Rammstein - другие аккорды (48),   о группе (7 статей),   диски (19),   фотографии (23)
Табулатура песни: Spiel Mit Mir
Просмотров: 3232




    



    Riff (1 PM E A strings)                                             
E---|-------------------------------------------------------------------
B---|-------------------------------------------------------------------
G---|-----------4-------------------------------------------------------
D---|-----------2-------------------------------------------------------
A---|--2--2--2-----2--2--2-----2--2--2-----3-----3-----3--------3-------
E---|--0--0--0-----0--0--0-----0--0--0-----1-----1-----1--------1-------
                                                                        

                            Riff 2 (PM A Bb G chords)                   
E------------------------|-----|----------------------------------------
B------------------------|-----|----------------------------------------
G------------------------|-----|-----------2----------------------------
D------------------------|-----|--2--2--2--2--2--2--2-----2--2--2-------
A---3-----4--4-----4--4--|-----|--0--0--0-----0--0--0-----0--0--0-------
E---1-----2--2-----2--2--|-----|----------------------------------------
                                                                        

                                                                        
E-----------------------------------------------------------------------
B-----------------------------------------------------------------------
G------------------------------------------2----------------------------
D---2--2--3-----3--3--------------2--2--2--2--2--2--2-----2--2--2-------
A---0--0--1-----1--1--5-----5--5--0--0--0-----0--0--0-----0--0--0-------
E---------------------3-----3--3----------------------------------------
                                                                        

                         Riff 3                                         
E---------------------|-------------------------------------------------
B---------------------|-------------------------------------------------
G---------------------|-------------------------------------------------
D---2--2--3-----3--3--|--4--4--4-----------------------------2--2--2----
A---0--0--1-----1--1--|--2--2--2-----2--2--2-----2--2--2-----0--0--0----
E---------------------|--------------0--0--0-----0--0--0----------------
                                                                        

                                        Riff 4                          
E------------------------------------|----------------------------------
B------------------------------------|----------------------------------
G------------------------------------|----------------------------------
D------2--2--------------------------|--4--4--4-------------------------
A------0--0--3-----3--3--2-----2--2--|--2--2--2-----2--2--2-----2--2----
E------------1-----1--1--0-----0--0--|--------------0--0--0-----0--0----
                                                                        

                                  Riff 5                                
E------------------------------|--------|-------------------------------
B------------------------------|--------|-------------------------------
G------------------------------|--3-----|-------------------------------
D---------2--2--2-----2--2--3--|--3--5--|-------------------------------
A---2-----0--0--0-----0--0--3--|--1--5--|-------------------------------
E---0-----------------------1--|-----3--|-------------------------------
                                                                        

       Solo Play this a few times end on this                           
E------------------------------------------------------|----------|-----
B------12--0--12--0-----12--0--12--0-----12--0--12--0--|--12^~~~--|-----
G------------------------------------------------------|----------|-----
D------------------------------------------------------|----------|-----
A------------------------------------------------------|----------|-----
E------------------------------------------------------|----------|-----
                                                                        

    Riff 6                                                              
E---------------------------------------------------------|-------------

Продолжаем грести бабос на ботах в Telegram.
Только в этот раз есть вариант автоматизировать это дело, привлекая рефералов. Вы можете заработать если »

B---------------------------------------------------------|------------- G------------2--------------------------------------------|------------- D---2--2--2--2--2--2--2-----2--2--2-----2--2--3-----3--3--|------------- A---0--0--0-----0--0--0-----0--0--0-----0--0--1-----1--1--|------------- E---------------------------------------------------------|------------- Song Progression: Synthesizer Intro Verse 1 Verse 2: Riff 1 x4 Riff 2 Verse 3: Riff 1 x4 Bridge: Riff 2 Chorus: Riff 3 x3 Riff 4 Pause Solo Verse 4: Riff 1 x4 Bridge: Riff 5 Riff 6 Chorus: Riff 3 x3 Riff 4 Riff 3 x4 Riff 4 == TABLATURE EXPLANATION == ---------- ---------- ----t--- ----5h8--- Hammeron ----(8)--- Ghost ----6--- Tap ---------- ---------- Note -------- ----5p8--- Pulloff ---------- -------- ---------- ---------- -----p-- ----5/8--- Slide Up -----x---- Dead -----7-- Pop ---------- ---------- Note --s----- ----5\8--- Slide Down ---------- --5----- Slap ---------- ||------|| Repeat -------- ----5~~~-- Vibrato ||*----*|| ---5^--- Bend ---------- ||*----*|| -------- ---------- ||------|| -------- ---------- ---------- -------- -4:------- Time ---------- -------- -4:------- Signature ---------- -------- ---------- ---------- -------- Rhythm: w = whole note W = dotted whole h = half note H = dotted half q = quarter note Q = dotted quarter e = eighth note E = dotted eighth s = sixteenth note S = dotted sixteenth t = 32nd note T = dotted 32nd x = 64th note X = dotted 64th ^ = triplet








О сайтеАккордыХит-парадПоискУроки ФорумыИщу песню
ПрограммыСвежачок-сПодпискаСтатьи
Яндекс.Метрика