Табулатура Rammstein | Wollt Ihr Das Bett In Flammen Sehen гитара табулатуры уроки тексты песен Rammstein текст lyrics песня аккорды песни ноты нота электрогитара струна  
   А Б В Г Д Е Ж З И К Л М Н О П Р С Т У Ф Х Ч Ш Ы Э Ю Я       Разные песни
1-9 A B C D E F G H I J K L M N O P Q R S T U V W Y Z      Все исполнители in english

    



группа Rammstein, Табулатура песни Wollt Ihr Das Bett In Flammen Sehen

Группа: Rammstein - другие аккорды (48),   о группе (7 статей),   диски (19),   фотографии (23)
Табулатура песни: Wollt Ihr Das Bett In Flammen Sehen
Просмотров: 3043




    


Tuning: Dropped D (D A D G B E)


       Riff 1 PM all 0's          Riff 2                  Riff 3        
E---|--------------------------|-----------------------|--------|-------
B---|--------------------------|-----------------------|--------|-------
G---|--5--7-----8-----7--------|-----------------------|--5--7--|-------
D---|--5--7-----8-----7--------|--------------3--0--0--|--5--7--|-------
A---|--3--5-----6-----5--------|--------------3--0--0--|--3--5--|-------
D---|--------0-----0-----0--0--|--7--7--6--5--3--0--0--|--------|-------
                                                                        

    Fill 1                                                              
E---------------------------|-------------------------------------------
B---------------------------|-------------------------------------------
G---------------5-----------|-------------------------------------------
D---------------5-----------|-------------------------------------------
A---------------------------|-------------------------------------------
D---------------------------|-------------------------------------------
                                                                        

Song Progression: 
Synthesizer/drums/keyboard intro 
Riff 3 
Riff 1 x7 
Riff 3 
Riff 1 x13 
Verse 1 (Riff 1 x26 w/Fill 1) 
Verse 2 (Riff 1 x29 w/Fill 1) 
Riff 2 x15 
Verse 3 (Riff 3 x5) 
Riff 1 x41 w/Fill 1) 
End with Riff 3. 
Note: Tremolo pick Fill 1 


Продолжаем грести бабос на ботах в Telegram.
Только в этот раз есть вариант автоматизировать это дело, привлекая рефералов. Вы можете заработать если »

== TABLATURE EXPLANATION == ---------- ---------- ----t--- ----5h8--- Hammeron ----(8)--- Ghost ----6--- Tap ---------- ---------- Note -------- ----5p8--- Pulloff ---------- -------- ---------- ---------- -----p-- ----5/8--- Slide Up -----x---- Dead -----7-- Pop ---------- ---------- Note --s----- ----5\8--- Slide Down ---------- --5----- Slap ---------- ||------|| Repeat -------- ----5~~~-- Vibrato ||*----*|| ---5^--- Bend ---------- ||*----*|| -------- ---------- ||------|| -------- ---------- ---------- -------- -4:------- Time ---------- -------- -4:------- Signature ---------- -------- ---------- ---------- -------- Rhythm: w = whole note W = dotted whole h = half note H = dotted half q = quarter note Q = dotted quarter e = eighth note E = dotted eighth s = sixteenth note S = dotted sixteenth t = 32nd note T = dotted 32nd x = 64th note X = dotted 64th ^ = triplet








О сайтеАккордыХит-парадПоискУроки ФорумыИщу песню
ПрограммыСвежачок-сПодпискаСтатьи
Яндекс.Метрика