Табулатура Чичерина | Ту-лу-ла (соло) гитара табулатуры уроки тексты песен Чичерина текст lyrics песня аккорды песни ноты нота электрогитара струна  
   А Б В Г Д Е Ж З И К Л М Н О П Р С Т У Ф Х Ч Ш Ы Э Ю Я       Разные песни
1-9 A B C D E F G H I J K L M N O P Q R S T U V W Y Z      Все исполнители in english

    



группа Чичерина, Табулатура песни Ту-лу-ла (соло)

Продолжаем грести бабос на ботах в Telegram.
Только в этот раз есть вариант автоматизировать это дело, привлекая рефералов. Вы можете заработать если »

Группа: Чичерина - другие аккорды (41),   о группе (7 статей),   диски (6),   фотографии (6)
Табулатура песни: Ту-лу-ла (соло)
Просмотров: 3069
Подобрал: Кожевников Никита (Nickson_84@mail.ru)




    


E ------|------|------|------|------|------|------|------|------|-----
B ------|------|------|------|------|------|------|------|------|-----
G ------|------|------|------|------|------|------|------|------|-----
D ------|------|------|------|------|------|------|------|------|-----
A ------|------|------|------|------|------|------|------|------|-----
E ------|------|------|------|------|------|------|------|------|-----

E -|------|------|-4-4-4-2-|-4-4-4-4-4-4-2-|-4-4-4-9-9-4-4-|-2-2-2-2-2
B -|------|------|---------|---------------|---------------|----------
G -|------|------|---------|---------------|---------------|----------
D -|------|------|---------|---------------|---------------|----------
A -|------|------|---------|---------------|---------------|----------
E -|------|------|---------|---------------|---------------|----------

E -2-0-|-4-4-4-4-4-4-2-|-4-4-4-4-4-2-|-4-4-4-9-9-4-4-|-2-2-0-2-0-2-0-|
B -----|---------------|-------------|---------------|---------------|
G -----|---------------|-------------|---------------|---------------|
D -----|---------------|-------------|---------------|---------------|
A -----|---------------|-------------|---------------|---------------|
E -----|---------------|-------------|---------------|---------------|

E -2-0-2-4-|------|------|------|---4-2-2-2-0-|-0-0-0-----|-0-0-0-0-0-
B ---------|------|------|------|-2-----------|-------2-0-|-----5-----
G ---------|------|------|------|-------------|-----------|-----------
D ---------|------|------|------|-------------|-----------|-----------
A ---------|------|------|------|-------------|-----------|-----------
E ---------|------|------|------|-------------|-----------|-----------

E ------|-----|---4-2-2-2-0-|-0-0-0-----|-0-0-0-0-0-------|-4-4---|---
B 2-0-2-|-4---|-2-----------|-------2-0-|-----5-----2-0-2-|-----7-|---
G ------|---5-|-------------|-----------|-----------------|-------|---
D ------|-----|-------------|-----------|-----------------|-------|---
A ------|-----|-------------|-----------|-----------------|-------|---
E ------|-----|-------------|-----------|-----------------|-------|---

E ---|------|------|------|------|------|------|------|-4-4-4-2-|-4-4-
B ---|------|------|------|------|------|------|------|---------|-----
G ---|------|------|------|------|------|------|------|---------|-----
D ---|------|------|------|------|------|------|------|---------|-----

Продолжаем грести бабос на ботах в Telegram.
Только в этот раз есть вариант автоматизировать это дело, привлекая рефералов. Вы можете заработать если »

A ---|------|------|------|------|------|------|------|---------|----- E ---|------|------|------|------|------|------|------|---------|----- E 4-4-4-4-2-|-4-4-4-9-9-4-4-|-2-2-2-2-2-2-0-|-4-4-4-4-4-4-2-|-4-4-4-4- B ----------|---------------|---------------|---------------|--------- G ----------|---------------|---------------|---------------|--------- D ----------|---------------|---------------|---------------|--------- A ----------|---------------|---------------|---------------|--------- E ----------|---------------|---------------|---------------|--------- E 4-2-|-4-4-4-9-9-4-4-|-2-2-0-2-0-2-0-|-2-0-2-4-|------|------|------| B ----|---------------|---------------|---------|------|------|------| G ----|---------------|---------------|---------|------|------|------| D ----|---------------|---------------|---------|------|------|------| A ----|---------------|---------------|---------|------|------|------| E ----|---------------|---------------|---------|------|------|------| E ---4-2-2-2-0-|-0-0-0-----|-0-0-0-0-0-------|-----|---4-2-2-2-0-|-0-0 B -2-----------|-------2-0-|-----5-----2-0-2-|-4---|-2-----------|---- G -------------|-----------|-----------------|---5-|-------------|---- D -------------|-----------|-----------------|-----|-------------|---- A -------------|-----------|-----------------|-----|-------------|---- E -------------|-----------|-----------------|-----|-------------|---- E -0-----|-0-0-0-0-0-------|-4-4---|---4-2-2-2-0-|-0-0-0-----|-0-0-0-0 B ---2-0-|-----5-----2-0-2-|-----7-|-2-----------|-------2-0-|-----5-- G -------|-----------------|-------|-------------|-----------|-------- D -------|-----------------|-------|-------------|-----------|-------- A -------|-----------------|-------|-------------|-----------|-------- E -------|-----------------|-------|-------------|-----------|-------- E -0-------|-----|---4-2-2-2-0-|-0-0-0-----|-0-0-0-0-0-------|-4-4---| B ---2-0-2-|-4---|-2-----------|-------2-0-|-----5-----2-0-2-|-----7-| G ---------|---5-|-------------|-----------|-----------------|-------| D ---------|-----|-------------|-----------|-----------------|-------| A ---------|-----|-------------|-----------|-----------------|-------| E ---------|-----|-------------|-----------|-----------------|-------|

поиск лекарств
список лекарств






О сайтеАккордыХит-парадПоискУроки ФорумыИщу песню
ПрограммыСвежачок-сПодпискаСтатьи
Яндекс.Метрика