Табулатура Red Hot Chili Peppers | Californication 2 гитара табулатуры уроки тексты песен Red Hot Chili Peppers текст lyrics песня аккорды песни ноты нота электрогитара струна  
   А Б В Г Д Е Ж З И К Л М Н О П Р С Т У Ф Х Ч Ш Ы Э Ю Я       Разные песни
1-9 A B C D E F G H I J K L M N O P Q R S T U V W Y Z      Все исполнители in english

    



группа Red Hot Chili Peppers, Табулатура песни Californication 2

Продолжаем грести бабос на ботах в Telegram.
Только в этот раз есть вариант автоматизировать это дело, привлекая рефералов. Вы можете заработать если »

Группа: Red Hot Chili Peppers - другие аккорды (395),   о группе (3 статей),   диски (15),   фотографии (113)
Табулатура песни: Californication 2
Просмотров: 8961




    


#----------------------------------PLEASE NOTE---------------------------------#
#This file is the author's own work and represents their interpretation of the #
#song. You may only use this file for private study, scholarship, or research. #
#------------------------------------------------------------------------------#


CALIFORNICATION
     RHCP
================

Aranїacja: tigrisek@interia.pl


Riff A
^^^^^^
   a                   F                 a                   F
e|-------------------|-----------------|-------------------|-----------------|
H|-----0-1-----------|-----------------|-----0-1-----------|-----------------|
G|-------------------|-----0-2---------|-------------------|-----0-2---------|
D|---2---------------|-----------------|---2---------------|-----------------|
A|-0-----------------|---0-------------|-0-----------------|---0-------------|
E|-------------------|-1---------------|-------------------|-1---------------|
 |                                                                           |
G|-------9---9-7h9p7-|-------7---7-----|-------9---9-7h9p7-|-------10--10-7--|
D|-7---7-----------10|-------------10--|-7---7-----------10|-----------------|
A|-------------------|-8---8-----------|-------------------|-8---8-----------|
E|-------------------|-----------------|-------------------|-----------------|


Riff B
^^^^^^
   C       G         F       d
e|-----------------|-------------1---|
H|-----5-------0---|-----1-----3-----|
G|---5---5---4---4-|---2---2---------|
D|-5-------5-------|-3-------0-------|
A|-----------------|-----------------|
E|-----------------|-----------------|
 |                                   |
G|-----------------|---------7-------|
D|-10--------------|-----------------|
A|---------10------|-8---------------|
E|-----------------|-----------------|


Riff C
^^^^^^
   a                 F7+               a                 F7+
e|-0---bicie-------|-0---------------|-0---------------|-0---------------|
H|-1---najlepiej---|-1---------------|-1---------------|-1---------------|
G|-2---wyczuж------|-2---------------|-2---------------|-2---------------|
D|-2---sіuchaj№c---|-3---------------|-2---------------|-3---------------|
A|-0---nagrania----|-0---------------|-0---------------|-0---------------|
E|-----------------|-----------------|-----------------|-----------------|
 |                                                                       |
G|-----------------|-----------------|-----------------|---------9-7-----|
D|-7----------9-10-|----------10-9---|-7----------9-10-|-------10---10-9-|
A|-----------------|-8-------------10|-----------------|-8---------------|
E|-----------------|-----------------|-----------------|-----------------|


Riff D

Продолжаем грести бабос на ботах в Telegram.
Только в этот раз есть вариант автоматизировать это дело, привлекая рефералов. Вы можете заработать если »

^^^^^^ C G d a C G d e|-0-------2-------|-1-------0-------|-0-------2-------|-1---------------| H|-1-------2-------|-3-------1-------|-1-------2-------|-3---------------| G|-0-------0-------|-2-------2-------|-0-------0-------|-2---------------| D|-2-------0-------|-0-------2-------|-2-------0-------|-0---------------| A|-3-------2-------|-0-------0-------|-3-------2-------|-0---------------| E|-----------------|-----------------|-----------------|-----------------| | | G|-----------------|-----------------|---------------7-|-(7)-------------| D|-10--10----------|-7---7-----------|-10--10----9-10--|-----------------| A|---------10--10--|---------7---7---|---------10------|-----------------| E|-----------------|-----------------|-----------------|-----------------| Solo ^^^^ fis D fis D e|-----------------|-----------------|-----------------|-----------------| H|-10---10/14------|-----------------|-10---10/14------|-----------------| G|--------------13-|-\11-11----------|--------------13-|-\11----------11-| D|-----------------|-----------------|-----------------|-----------------| A|-----------------|-----------------|-----------------|-----------------| E|-----------------|-----------------|-----------------|-----------------| h D A E fis D e|-----------------|-----------------|-----------12----|-14--------------| H|-----------------|-----------------|-10----14--------|-----------------| G|-11p9------------|-9-11^12----9----|-----------------|-----------------| D|-----11-11--9-11-|--------------11-|-----------------|-----------------| A|-----------------|-----------------|-----------------|-----------------| E|-----------------|-----------------|-----------------|-----------------| fis D h D A E e|-----------12----|-14^16-14--------|-17--16--14--12--|-14--12----12----| H|-10----14--------|-----------------|-----------------|-------14-----14-| G|-----------------|-----------------|-----------------|-----------------| D|-----------------|-----------------|-----------------|-----------------| A|-----------------|-----------------|-----------------|-----------------| E|-----------------|-----------------|-----------------|-----------------| h D A E h D A E a e|-----------------|--------12----16-|-\14-12-12-------|-------12--------|----| H|---13^14---13^14-|---13^14---14----|------14---14--12|-----------15--14|----| G|---13^14---13^14-|---13^14---------|-----------------|---14------------|-14-| D|-----------------|-----------------|-----------------|-----------------|----| A|-----------------|-----------------|-----------------|-----------------|----| E|-----------------|-----------------|-----------------|-----------------|----| Ukіad piosenki: ^^^^^^^^^^^^^^^ Wstкp: A 1 zwr: AAB AAB CCCD 2 zwr: AAB AAB CCCD D Solo 3 zwr: AAB CCCD D

найти лекарство
список лекарств






О сайтеАккордыХит-парадПоискУроки ФорумыИщу песню
ПрограммыСвежачок-сПодпискаСтатьи
Яндекс.Метрика