Табулатура Ария | Ангельская пыль гитара табулатуры уроки тексты песен Ария текст lyrics песня аккорды песни ноты нота электрогитара струна  
   А Б В Г Д Е Ж З И К Л М Н О П Р С Т У Ф Х Ч Ш Ы Э Ю Я       Разные песни
1-9 A B C D E F G H I J K L M N O P Q R S T U V W Y Z      Все исполнители in english

    



группа Ария, Табулатура песни Ангельская пыль

Работа в Европе для граждан РФ, Украины, СНГ

  • минимальная зарплата $500.
  • виза и контракт на полгода, возможно продление
  • проживание оплачивает работодатель
  • нужен только загранпаспорт
  • оформление 190 €
  • данное предложение - отличная возможность эмигрировать в Европу и закрепиться здесь навсегда.

  • Мы свяжемся с Вами по WhatsApp или Viber и ответим на любые вопросы.
    на нашем сайте можно почитать подробнее »

    Группа: Ария - другие аккорды (629),   о группе (7 статей),   диски (18),   фотографии (92)
    Табулатура песни: Ангельская пыль
    Просмотров: 14732




        
    Вступление:
    
    эл. гитара 1:
    1|-------------------------------------------------------------------|
    2|-------------------------------------------------------------------|
    3|----------------------------4--5-4---------------------------------|
    4|-4---9---7-5-4-5--4---4-5-7--------7-5-4---4-----------------------|
    5|-2---7-------------7-7-------------------7-------------------------|
    6|-------------------------------------------------------------------|
    
    эл. гитара 2:
    1|-------------------------------------------------------------------|
    2|-------------------------------------------------------------------|
    3|----------------------------4--5-4---------------------------------|
    4|-4---9---7-5-4-5--4---4-5-7--------7-5-4---4-----------------------|
    5|-2---7-------------7-7-------------------7-------------------------|
    6|-------------------------------------------------------------------|
    
    эл. гитара 1:
    1|-------------------------------------------------------------------|
    2|-------------------------------------------------------------------|
    3|----------------------------4--5-4---------------------------------|
    4|-4---9---7-5-4-5--4---4-5-7--------7-5-4---4-----------------------|
    5|-2---7-------------7-7-------------------7-------------------------|
    6|-------------------------------------------------------------------|
    
    эл. Гитара 2:
    1|-------------------------------------------------------------------|
    2|-------------------------------------------------------------------|
    3|----------------------------7--8-7---------------------------------|
    4|-4---9---7-5-4-5--4---7-8-10-------10-8-7---7-----------------------|
    5|-2---7-------------7-10-------------------10------------------------|
    6|-------------------------------------------------------------------|
    
    эл. гитара 1:
    1|-------------------------------------------------------------------|
    2|---------------------------5-6-5-----------------------------------|
    3|-------7-5-4-5-4-----4-5-7-------7-5-4---4-------------------------|
    4|-4--9------------7-7-------------------7---------------------------|
    5|-2--7--------------------------------------------------------------|
    6|-------------------------------------------------------------------|
    
    эл. гитара 2:
    1|-------------------------------------------------------------------|
    2|---------------------------2-3-2-----------------------------------|
    3|-------7-5-4-5-4-----1-2-4-------4-2-1---1-------------------------|
    4|-4--9------------7-4-------------------4---------------------------|
    5|-2--7--------------------------------------------------------------|
    6|-------------------------------------------------------------------|
    
    эл. гитара 1:
    1|-------------------------------------------------------------------|
    2|-------------------------------------------------------------------|
    3|----------------------------4--5-4---------------------------------|
    4|-4---9---7-5-4-5--4---4-5-7--------7-5-4---4-----------------------|
    5|-2---7-------------7-7-------------------7-------------------------|
    6|-------------------------------------------------------------------|
    
    эл. гитара 2:
    1|-------------------------------------------------------------------|
    2|-------------------------------------------------------------------|
    3|----------------------------4--5-4---------------------------------|
    4|-4---9---7-5-4-5--4---4-5-7--------7-5-4---4-----------------------|
    5|-2---7-------------7-7-------------------7-------------------------|
    6|-------------------------------------------------------------------|
    
    Основная часть:
    
    ак. гитара 1:
    1|-------------------------------------------------------------------|
    2|-0-----0-----0----1-----1----1---0-----0-----0----1----1-----------|
    3|---0-----0-----0----0-----0----0---0-----0-----0----0----0---------|
    4|-----2-----2----------2-----2--------2-----2----------2------------|
    5|-------------------------------------------------------------------|
    6|-------------------------------------------------------------------|
    
    эл. гитара 2:
    1|-------------------------------------------------------------------|
    2|-------------------------------------------------------------------|
    3|-2~------------2-3~-----------3-2~------------2-3~-----------------|
    4|-------------------------------------------------------------------|
    5|-------------------------------------------------------------------|
    6|-------------------------------------------------------------------|
    
    
    ак. гитара 1:
    1|-------------------------------------------------------------------|
    2|-0-----0-----0----1-----1----1---0-----0-----0----1----1-----------|
    3|---0-----0-----0----0-----0----0---0-----0-----0----0----0---------|
    4|-----2-----2----------2-----2--------2-----2----------2------------|
    5|-------------------------------------------------------------------|
    6|-------------------------------------------------------------------|
    
    эл. гитара 2:
    1|-------------------------------------------------------------------|
    2|-------------------------------------------------------------------|
    3|-2~------------2-3~-----------3-2~------------2-3~-----------------|
    4|-------------------------------------------------------------------|
    5|-------------------------------------------------------------------|
    6|-------------------------------------------------------------------|
    
    ак. гитара:
       Em               C/E                  Em         Am6/E
    1|-------------------------------------------------------------------|
    2|-0-----0-----0----1-----1----1---0-----0-----0----1----1-----------|
    3|---0-----0-----0----0-----0----0---0-----0-----0----0----0---------|
    4|-----2-----2----------2-----2--------2-----2----------2------------|
    5|-------------------------------------------------------------------|
    6|-------------------------------------------------------------------|
    Hа  краю обрыва, за которым вечность,
    Ты стоишь один во власти странных грез
    
    ак. гитара:
       Em               C/E           G                 D
    1|-------------------------------------------------------------------|
    2|-0-----0-----0----1-----1----1---0-----0-----0----3----3-----------|
    3|---0-----0-----0----0-----0----0---0-----0-----0----2----2---------|
    4|-----2-----2----------2-----2--------0-----0----------0------------|
    5|-------------------------------------------------------------------|
    6|-------------------------------------------------------------------|
    И, простившись с миром, хочешь стать беспечным,
    Поиграть с огнем нездешних гроз.
    
    
    Hаконец ты счастлив как никто на свете,
    Ангельская пыль тебя уносит вверх.
    Только ей подвластны и восторг, и ветер,
    В жидких небесах звучит твой смех.
    
    
    Припев.
    
    Узнай ВСЕ о своем друге в ВК или FB
    эл гитара 1: D C Em 1|-------------------------------------------------------------------| 2|-------------------------------------------------------------------| 3|--5-5-7-7-9-------5-4-----4----------------------------------------| 4|--5-5-7-7-9-4-5-7-----7-5---7-5-4-7-5-4----------------------------| 5|--3---5---7-----------------------------7--------------------------| 6|-------------------------------------------------------------------| эл гитара 2: 1|-------------------------------------------------------------------| 2|-------------------------------------------------------------------| 3|--5-5-7-7-9-------8-7-----8----------------------------------------| 4|--5-5-7-7-9-7-8-10---10-8--10-8-7-10-8-7---------------------------| 5|--3---5---7------------------------------10------------------------| 6|-------------------------------------------------------------------| Ангельская пыль. эл гитара 1: D C B7 1|-------------------------------------------------------------------| 2|-------------------------------------------------------------------| 3|--5-5-7-7-4-------4-------4----------------------------------------| 4|--5-5-7-7-4-------4-------4----------------------------------------| 5|--3---5---2-2-2-2-2-2-2-2-2----------------------------------------| 6|-----------------------------3-2-----------------------------------| Это сон и быль! эл. гитара 1: Em C G D 1|-------------------------------------------------------------------| 2|-------------------------------------------------------------------| 3|-------------------------------------------2-----------------------| 4|-----------------------------------0-2-4-5---5-4-2-----------------| 5|-------------------------------------------------------------------| 6|-------------------------------------------------------------------| эл. гитара 2: 1|-------------------------------------------------------------------| 2|-------------------------------------------------------------------| 3|---------------------------------------2-4-5-4-2-------------------| 4|-2-4-5-4-2---2-4-5-4-2---4-5-7-5-4-4-5-----------4-----------------| 5|-----------5-----------5-------------------------------------------| 6|-------------------------------------------------------------------| Безумец, беглец - дороги нет Эл. гитара 1 Em C D 1|--------------------------------------------------------------------| 2|--------------------------------------------------------------------| 3|----------------------------------------------2---------------------| 4|--------------------------------------0-2-4-5-----------------------| 5|--------------------------------------------------------------------| 6|--------------------------------------------------------------------| Эл. гитара 2: 1|-------------------------------------------------------------------| 2|-------------------------------------------------------------------| 3|-------------------------------------------------------------------| 4|--2-4-5-4-2---2-4-5-4-2---4-5-7-5-4-------4-5-7--------------------| 5|------------5-----------5-----------7-5-7--------------------------| 6|-------------------------------------------------------------------| Ты видишь неверный свет. Эл. гитара 1: Am F C G 1|-------------------------------------------------------------------| 2|-------------------------------------------------------------------| 3|-------------------------------------------------------------------| 4|--------------------------------------------2-3-2------------------| 5|--------------------------------------2-3-5-------5-3--------------| 6|-------------------------------------------------------------------| Эл. гитара 2: 1|-------------------------------------------------------------------| 2|-------------------------------------------------------------------| 3|-------------------------------------------------------------------| 4|-------------------------------------------------------------------| 5|--0-2-3-2-0---0-2-3-2-0---2-3-5-3-2-0---0-2-3-2-0------------------| 6|------------3-----------3-------------3-----------3-1--------------| Твой ангел зажег мираж огня. Эл. Гитара 1: Am F G 1|-------------------------------------------------------------------| 2|-------------------------------------------------------------------| 3|-------------------------------------------------------------------| 4|-------------------------------------------------------------------| 5|-------------------------------------------------------------------| 6|-------------------------------------------------------------------| 1|-------------------------------------------------------------------| 2|-------------------------------------------------------------------| 3|-------------------------------------------------------------------| 4|--------------------------5-------5-------5------------------------| 5|--0-2-3-2-0---0-2-3-2-0---5-5-5-5-5-5-5-5-5------------------------| 6|------------3-----------3-3-3-3-3-3-3-3-3-3------------------------| Он хочет убить тебя... Hа краю обрыва песня неземная, Музыка богов и голоса богинь. Ты паришь над миром, но торговец раем Вынет душу из тебя за героин. Ты устал быть птицей и сорвался камнем. Рухнул с высоты, спасаясь от судьбы. Hа краю обрыва вновь летят на пламя Сотни мотыльков-самоубийц. Припев. P.S. Если песня играется одной гитарой, то соответственно в надо смотреть табулатры для 1-й гитары. Где нету табов, а стоят аккорды, играется по аккордам.

    лекарство в аптеке
    список лекарств






    О сайтеАккордыХит-парадПоискУроки ФорумыИщу песню
    ПрограммыСвежачок-сПодпискаСтатьи
    Яндекс.Метрика