Табулатура Mission | Misc Songs гитара табулатуры уроки тексты песен Mission текст lyrics песня аккорды песни ноты нота электрогитара струна  
   А Б В Г Д Е Ж З И К Л М Н О П Р С Т У Ф Х Ч Ш Ы Э Ю Я       Разные песни
1-9 A B C D E F G H I J K L M N O P Q R S T U V W Y Z      Все исполнители

    



группа Mission, Табулатура песни Misc Songs

Группа: Mission - другие аккорды (21)
Табулатура песни: Misc Songs
Просмотров: 1290




    


#----------------------------------PLEASE NOTE---------------------------------#
#This file is the author's own work and represents their interpretation of the #
#song. You may only use this file for private study, scholarship, or research. #
#------------------------------------------------------------------------------##

Here are a few Mission intros/riffs.
Comments, corrections etc. welcome.
Par Svensson, t89par@tdb.uu.se


Blood Brother:
=============

1st guitar

e -------2-0-----------2-0-----------2-0-----------0------
B -0-0-0-----0-0---0-------0-----0-------0-----3-----3----
G ---------------2---2-------2-1---1-------1-2---2-----2--
D --------------------------------------------------------
A --------------------------------------------------------
E --------------------------------------------------------

2nd guitar

e ------------7-------------------------*----------------7--
B -7-9/10/9-7---7-9/10/9-7---7-9/10/9-7---7-9/10/9-7---7----
G -------------------------9-------------------------9------
D ----------------------------------------------------------
A ----------------------------------------------------------
E ----------------------------------------------------------

("*" means "7" the first time played, and "12" the second.)


Naked and Savage:
================

e -----0-1-----0-1-----3-1-0---0----
B ---3-------3-------1-------1---3--
G ----------------------------------
D -0-------3------------------------
A -----------------0----------------
E ----------------------------------


Serpent's Kiss:
==============

Продолжаем грести бабос на ботах в Telegram.
Только в этот раз есть вариант автоматизировать это дело, привлекая рефералов. Вы можете заработать если »

e -----5-3---5-3-5-3------3-3---3-3---------- B ---3-----3------------3-----3-----6-5/6/5-- G -5------------------0---------------------- D ------------------------------------------- A ------------------------------------------- E ------------------------------------------- Like a hurricane: ================= (Somewhat simplified) e -7---7-------7-----7--5---5-------5-----5-- B ---5---5---5-----5------3---3---3-----3---- G ---------4-----4--------------2-----2------ D ------------------------------------------- A ------------------------------------------- E ------------------------------------------- e -3---3-------3-----3--2---2-----5-5---5---- B ---1---1---1-----1------0---0-0-----3---3-- G ---------0-----0--------------------------- D ------------------------------------------- A ------------------------------------------- E ------------------------------------------- Dancing Barefoot: ================ Chorus: G A I'm dancing barefoot, C D Heading for a spin Em A Some strange music drags me in, C D Makes me come on like some heroine (The rest of the song is just Em A Em A etc...)








О сайтеАккордыХит-парадПоискУроки ФорумыИщу песню
ПрограммыСвежачок-сПодпискаСтатьи
Яндекс.Метрика