Аккорды Red Hot Chili Peppers | Scar Tissue - 3 гитара табулатуры уроки тексты песен Red Hot Chili Peppers текст lyrics песня аккорды песни ноты нота электрогитара струна  
   А Б В Г Д Е Ж З И К Л М Н О П Р С Т У Ф Х Ч Ш Ы Э Ю Я       Разные песни
1-9 A B C D E F G H I J K L M N O P Q R S T U V W Y Z      Все исполнители in english

    



группа Red Hot Chili Peppers, Аккорды песни Scar Tissue - 3

Группа: Red Hot Chili Peppers - другие аккорды (395),   о группе (3 статей),   диски (15),   фотографии (113)
Аккорды песни: Scar Tissue - 3
Просмотров: 3912




    


Email: cauhgr@nrc.com.au

Should be most of the song except for the last solo.

Verse 1
--------------------------------------------------------------------
--------------------------------------------------------------------
----14---14---14---14---9-9/10--10---10---10---10p9-----------------
--------------------------------------------------------------------
--------------------------------------------------------------------
-13----13---13----13----8-8/10----10---10---10---------8------------
                                                                      
     

--------------------------------------------------------------------
--------------------------------------------------------------------
----14----14----14----14-12--9/10-----------10---10p9---------------
--------------------------------------------------------------------
--------------------------------------------------------------------
-13----13----13----13--------8/10-------------10--------8-----------
                                                                      
     

--------------------------------------------------------------------
--------------------------------------------------------------------
----14---14---14---14---9-9/10--10---10---10---10p9-----------------
--------------------------------------------------------------------
--------------------------------------------------------------------
-13----13---13----13----8-8/10----10---10---10---------8------------
                                                                      
     

--------------------------------------------------------------------
----------------13--------------------------------------------------
----14----14--14---12/14--14--14--14--12----------------------------
--------------------------------------------------------------------
--------------------------------------------------------------------
-13----13----13-------------------------------8---------------------
chorus
--------------------------------------------------------------------
--------------------------------------------------------------------
-10---10-10-10-10-10------------------------------------------------
-10---10-10-10-10-10-10-10/12-12-12-12-12-12-----12\10--------------
-8----8--8--8--8--8--10-10/12-12-12-12-12-12-----12\10--------------
---------------------8--8-/10-10-10-10-10-10-----10\8---------------

Verse 2
--------------------------------------------------------------------
--------------------------------------------------------------------
---14----14---14---14--9---9/10-----10---10-----10p9----------------
--------------------------------------------------------------------
--------------------------------------------------------------------
-13----13---13----13---8---8/10------10---10---10--------8----------
                                                                     
     

--------------------------------------------------------------------
-----------------------15--13-----------------18-17-15-13-----------
---14----14---14---------------12--12/14--14------------------------
--------------------------------------------------------------------
--------------------------------------------------------------------
-13----13---13----13------------------------------------------------

Lead 1
--(prebend)---------------------------------------------------------
--(14)r13---------------------------------------------13b14---------
-----------14-----(15)r14--12----12b13---14---14b15-----------------
--------------------------------------------------------------------
--------------------------------------------------------------------
--------------------------------------------------------------------
                                                                      
     
Verse 3
--------------------------------------------------------------------

Продолжаем грести бабос на ботах в Telegram.
Только в этот раз есть вариант автоматизировать это дело, привлекая рефералов. Вы можете заработать если »

-------------------------------------------------------------------- ---14----14---14---14--9---9/10-----10-----10p9-10p9---------------- -------------------------------------------------------------------- -------------------------------------------------------------------- -13----13---13----13---8---8/10------10------------------8---------- -------------------------------------------------------------------- ------------------13------------------------------------------------ ---14----14---14------12s14--14----16-17-16-14---------------------- -------------------------------------------------------------------- -------------------------------------------------------------------- -13----13---13-------------------------------------------8---------- Verse 4 -------------------------------------------------------------------- -------------------------------------------------------------------- ---14----14---14---14--9---9/10-----10---10-----10p9---------------- -------------------------------------------------------------------- -------------------------------------------------------------------- -13----13---13----13---8---8/10------10---10---10--------8---------- -------------------------------------------------------------------- -----------------------15--13-----------------18-17-15-13----------- ---14----14---14---------------12--12/14--14------------------------ -------------------------------------------------------------------- -------------------------------------------------------------------- -13----13---13----13------------------------------------------------ Lead 2 -------------------------------------------------------------------- -13b14-(14)r13-13----------------13----13b14(15)r15-13-------------- ------------------14--(13)r12-12---14---------14---(15)r14-2-------- -------------------------------------------------------------------- ---------------------------------------Bend 13 to-14 hit---------------------- ---------------------------------------15-and release------------------------- --------------------------------------------------------------------- --------------------------------------------------------------------- -(15)r14--14----14b15--16b17-17b18----------------------------------- --------------------------------------------------------------------- --------------------------------------------------------------------- --------------------------------------------------------------------- Verse 5 --------------------------------------------------------------------- --------------------------------------------------------------------- ----14---14---14---14---9-9/10------14--14--14----------------------- --------------------------------------------------------------------- --------------------------------------------------------------------- -13----13---13----13----8-8/10----13---13---13------8---------------- ---------------------------------------------------------------------- ----------------13---------------------------------------------------- ----14----14--14---12/14--14--14--14--12------------------------------ ---------------------------------------------------------------------- ---------------------------------------------------------------------- -13----13----13-------------------------------8-----------------------








О сайтеАккордыХит-парадПоискУроки ФорумыИщу песню
ПрограммыСвежачок-сПодпискаСтатьи
Яндекс.Метрика