Табулатура Red Hot Chili Peppers | Get On Top гитара табулатуры уроки тексты песен Red Hot Chili Peppers текст lyrics песня аккорды песни ноты нота электрогитара струна  
   А Б В Г Д Е Ж З И К Л М Н О П Р С Т У Ф Х Ч Ш Ы Э Ю Я       Разные песни
1-9 A B C D E F G H I J K L M N O P Q R S T U V W Y Z      Все исполнители in english

    



группа Red Hot Chili Peppers, Табулатура песни Get On Top

Группа: Red Hot Chili Peppers - другие аккорды (395),   о группе (3 статей),   диски (15),   фотографии (113)
Табулатура песни: Get On Top
Просмотров: 2436




    
Tabbed by Andres (la_laker83@hotmail.com)
 

This song seems to have more than 1 guitar.
Anyway, this is mainly the audible part.
 

Intro & Verse
 
E--------------------------------------------
B--------------------------------------------
G--------------------------------------------
D--------------------------------------------
A--7-7-7-7-10-10-10-10---7-7-7-10-10-10-10---
E--------------------------------------------
                                                                              
Chorus
 
E--------------------------------------------
B--------------------------------------------
G--------------------------------------------
D--7-7-10-10---7-7--10-10--------------------
A--------------------------------------------
E--------------------------------------------
                                                                              
Riff (played right after chorus)
 
E--12--12--12----12--------------------------
B--12--12--12----12--------------------------
G--------------------------------------------
D--------------------------------------------
A--------------------------------------------
E--------------------------------------------
                                                                              
Solo
(Here the bass and guitar are confused. I can hardly distinguish between
bass and guitar)
Use a wah-wah pedal.
 
Play this 2 times.
E--5---8----
B--6---5----
G-----------
D-----------
A-----------

Продолжаем грести бабос на ботах в Telegram.
Только в этот раз есть вариант автоматизировать это дело, привлекая рефералов. Вы можете заработать если »

E----------- Play this 2 times. E----------- B--6---5---- G--7---5---- D----------- A----------- E----------- E--------------------------------------------------- B--------------------------------------------------- G--------------------------5-----5--5p7h5--7-------- D--5h7-7--7p5-7--------5/7---7----------------5/7--- A---------------5----------------------------------- E--------------------------------------------------- This seems to be the bass E--------------------------------------------------- B--------------------------------------------------- G--------------------------------------------------- D---------------------------5----------------------- A---------3-3-5-5-5/7---8-------7------------------- E--5-5-5-------------------------------------------- This is guitar E-------------- B-------------- G--7-7-7------- D--7-7-7------- A--5-5-5------- E-------------- Then play \'Intro & Verse\' part till the end. I know it\'s not 100% right so questions, comments, suggestions, etc., please mail to la_laker83@hotmail.com Try to enjoy!








О сайтеАккордыХит-парадПоискУроки ФорумыИщу песню
ПрограммыСвежачок-сПодпискаСтатьи
Яндекс.Метрика