Табулатура Manowar | Shell Shock гитара табулатуры уроки тексты песен Manowar текст lyrics песня аккорды песни ноты нота электрогитара струна  
   А Б В Г Д Е Ж З И К Л М Н О П Р С Т У Ф Х Ч Ш Ы Э Ю Я       Разные песни
1-9 A B C D E F G H I J K L M N O P Q R S T U V W Y Z      Все исполнители in english

    



группа Manowar, Табулатура песни Shell Shock

Продолжаем грести бабос на ботах в Telegram.
Только в этот раз есть вариант автоматизировать это дело, привлекая рефералов. Вы можете заработать если »

Группа: Manowar - другие аккорды (25),   о группе (16 статей),   диски (15),   фотографии (37)
Табулатура песни: Shell Shock
Просмотров: 1852




    



#----------------------------------PLEASE NOTE--------------------------------#
#This file is the author's own work and represents their interpretation of the#
#song. You may only use this file for private study, scholarship, or research.#
#-----------------------------------------------------------------------------#

Author/Artist: Manowar
Title: Shell Shock
Album: Battle Hymns
Transcribed by: Manoel Manowar
Email: manoelmanowar@yahoo.com

If you have the solo or any correction, please send to me by e-mail. Hail to
all the brothers of metal all over the world and at Brazil !!!

Visit my home-page at: "http://www.truemetal.org/manowarkill"

Intro:
-|-----------------------------------------------|----------------------------
-|-----------------------------------------------|----------------------------
-|----------------------------------------------o|----------------------------
-|--5-----5-----5---5-----5-----5-----5---5-----o|---------------7------------
-|--3-0-0-3-0-0-3-0-3-0-0-3-0-0-3-0-0-3-0-3-0-0--|-------3-------5------------
-|-----------------------------------------------|-0-3-5---5-3----------------

Main Theme:
-|-----------------------------------------------|----------------------------
-|-----------------------------------------------|----------------------------
-|----------------------------------------------o|----------------------------
-|-5-----5-----5---5-----5-----5-----5---5------o|------7---------------------
-|-3-0-0-3-0-0-3-0-3-0-0-3-0-0-3-0-0-3-0-3-0-0---|--00--5---------------------
-|-----------------------------------------------|----------------------------

Part I - without distortion: (Well there's no charge for the haircut...)
-|-----------------------------|----------------------------------------------
-|-----------------------------|----------------------------------------------
-|--9-9---9-9---9-9---9-9-----o|----------------------------------------------
-|--7-7---7-7---7-7---7-7---7-o|----------------------------------------------
-|--------------------------5--|----------------------------------------------
-|-----------------------------|----------------------------------------------

Repeat Main Theme (Now I'm a ranger, not a stranger...).

Bridge: (But if they tell you that I've lost my mind...)
-|----------------------------------------------------------------------------
-|----------------------------------------------------------------------------
-|----------------------------------------------------------------------------
-|-10-10-10-10-10-10-10-9-9-9-9-9-9-9-5-5-5-5-5-5-5-7-7-7-7-7-7-7-------------
-|-8--8--8--8--8--8--8--7-7-7-7-7-7-7-3-3-3-3-3-3-3-5-5-5-5-5-5-5-------------
-|----------------------------------------------------------------------------

(About the time this letter gets home, I'll be gone, gone, yeah gone)
-|----------------------------------------------------------------------------
-|----------------------------------------------------------------------------
-|----------------------------------------------------------------------------
-|-10-10-10-10-10-10-10-9-9-9-9-9-9-9-----------------------------------------
-|-8--8--8--8--8--8--8--7-7-7-7-7-7-7--7-7-7--5-5-5---------------------------
-|-------------------------------------5-5-5--3-3-3---------------------------

On the chorus, play the Main Theme.
Manowar: Shell Shock solo(Battle Hyms)
Transcribed by HeXa(Heikki.Mustonen@kymp.net)

Standard Tuning

Solo 1
|----------------------------------------------------------------------------|
|------------------------------------------------8(10)---------5-8-5---------|
|-5-5-5-5-5-5-5-5-5-5-5-5-5-5-5-5-5-5-5-5-5-5-5------------5-7-------7-5-----|
|------------------------------------------------------5-7---------------7-5-|
|-3-3-3-3-3-3-3-3-3-3-3-3-3-3-3-3-3-3-3-3-3-3-3------------------------------|
|----------------------------------------------------------------------------|

|----------------------------------------------------------------------------|
|------------------------------------------------8(10)-------------5-8-5-----|
|-5-5-5-5-5-5-5-5-5-5-5-5-5-5-5-5-5-5-5-5-5-5-5-------------5-7(9)-------7-5-|
|-------------------------------------------------------5-7------------------|
|-3-3-3-3-3-3-3-3-3-3-3-3-3-3-3-3-3-3-3-3-3-3-3------------------------------|
|----------------------------------------------------------------------------|

|---|------------------------------------------------------------------------|
|---|-5h8p5h8p5h8p5h8p5h8p5h8p5h8p5(bend-down)-------------------------------|
|---|-------------------------------------------5\--5-5-5-5------------------|
|-7-|--------------------------------------------------------0h2p0h2p0h2~----|
|---|-----------------------------------------------3-3-3-3------------------|
|---|------------------------------------------------------------------------|

|-------8--------------------------------------------------------------------|
|------------------------------------------7(8)-7(8)-7(8)-7(8)--8h10p8h10p8h-|
|-7(9)-----7-5-7-5--7-5---7-5---7-5---7-5--7(9)-7(9)-7(9)-7(9)---------------|
|-----------------7-----7-----7-----7----------------------------------------|

Продолжаем грести бабос на ботах в Telegram.
Только в этот раз есть вариант автоматизировать это дело, привлекая рефералов. Вы можете заработать если »

|----------------------------------------------------------------------------| |----------------------------------------------------------------------------| |----------|-----------------------------------------------------------------| |10p8h10p8-|-----------------12-13-12-------13-12-------13-12-------13-12----| |----------|-14(16)-br-12-14----------14-12-------14-12-------14-12-------14-| |----------|-----------------------------------------------------------------| |----------|-----------------------------------------------------------------| |----------|-----------------------------------------------------------------| |-------------12-13-12-----------------15---------|-20(22)-20(22)-20(22)-17--| |----12-13-15----------15-13-12-15(17)----15(17)--|--------------------------| |-12----------------------------------------------|--------------------------| |-------------------------------------------------|--------------------------| |-------------------------------------------------|--------------------------| |-------------------------------------------------|--------------------------| |-20-17----17--------------17--------------17--------------17--------------17| |-------20----20-17-20(22)----20-17-20(22)----20-17-20(22)----20-17--17-20---| |----------------------------------------------------------------------------| |----------------------------------------------------------------------------| |----------------------------------------------------------------------------| |----------------------------------------------------------------------------| |----------------------------------------------------------------------------| |-20-17-20-17----20-17----20-17----20-17---20-17-----------------------------| |-------------19-------19-------19------19-------19-17-----------------------| |------------------------------------------------------19--------------------| |----------------------------------------------------------------------------| |----------------------------------------------------------------------------| Solo 2 |---------------------------------------|------------------------------------| |---------------------------------------|------------------------------------| |---------------------------------------|------------------------------------| |---------------------------------------|-10~-/\/\/\/\/---10h12p10h12p10h12--| |-10h12p10h12p10h12p10h12~--10h12p10h12-|------------------------------------| |---------------------------------------|------------------------------------| |---------------------------------------------|--------12---------------12---| |---------------------------------------------|-15(16)----15-13--15(16)----15| |---------------------------------------------|------------------------------| |-14--12--10----------------------------------|------------------------------| |-------------12---10-------------------------|------------------------------| |----------------------12--10--/\/\/\/\///----|------------------------------| |-----------12--------------12-----------------------------------------------| |-13-15(16)----15-13-15(16)----15-13-13h15p13h15p13h15p13h15p13-12h13p12h13p-| |----------------------------------------------------------------------------| |----------------------------------------------------------------------------| |----------------------------------------------------------------------------| |----------------------------------------------------------------------------| |-----------------------------|-15-----15-----15-----15-----15-----15--------| |12h13p12h13p12---------------|-18(20)-18(20)-18(20)-18(20)-18(20)-18(20)----| |----------------14(16)-br-14-|----------------------------------------------| |-----------------------------|----------------------------------------------| |-----------------------------|----------------------------------------------| |-----------------------------|----------------------------------------------| |-12-15-12-------------------------------------15(17)-|-15h17-15h17-15h17----| |-----------15(17)-15(17)-13-15-13----13--------------|----------------------| |----------------------------------14----14-12--------|----------------------| |-----------------------------------------------------|----------------------| |-----------------------------------------------------|----------------------| |-----------------------------------------------------|----------------------| |-15h17p15h17p15h17------------------------------------------------------12--| |-------------------15h17p15h17p15h17-13-15-13---------------------12-15-----| |-----------------------------------------------14-----------12-14-----------| |------------------------------------------------------12-14-----------------| |----------------------------------------------------------------------------| |----------------------------------------------------------------------------| |-15-17-17(19)-17(19)--19(20)-|-15h17-15h17-15h17-15--14-13-12(13)-br-10-12--| |-----------------------------|----------------------------------------------| |-----------------------------|----------------------------------------------| |-----------------------------|----------------------------------------------| |-----------------------------|----------------------------------------------| |-----------------------------|----------------------------------------------| |-12(13)-br-10---------------------------------------------------------------| |--------------12---\--------------------------------------------------------| |----------------------------------------------------------------------------| |----------------------------------------------------------------------------| |----------------------------------------------------------------------------| |----------------------------------------------------------------------------|

поиск лекарств
список лекарств






О сайтеАккордыХит-парадПоискУроки ФорумыИщу песню
ПрограммыСвежачок-сПодпискаСтатьи
Яндекс.Метрика