Табулатура Manowar | Manowar гитара табулатуры уроки тексты песен Manowar текст lyrics песня аккорды песни ноты нота электрогитара струна  
   А Б В Г Д Е Ж З И К Л М Н О П Р С Т У Ф Х Ч Ш Ы Э Ю Я       Разные песни
1-9 A B C D E F G H I J K L M N O P Q R S T U V W Y Z      Все исполнители in english

    



группа Manowar, Табулатура песни Manowar

Продолжаем грести бабос на ботах в Telegram.
Только в этот раз есть вариант автоматизировать это дело, привлекая рефералов. Вы можете заработать если »

Группа: Manowar - другие аккорды (25),   о группе (16 статей),   диски (15),   фотографии (37)
Табулатура песни: Manowar
Просмотров: 1573




    



Standard Tuning

Comment: This is tabbed from the "Hell on Wheels" but this is almost the same
as the original. I didn't tab the Original version 'cause I have it only on
Cassette and my Cassetteplayer is broken. If somebody wants the original
version, Just let me know and I'll tab it if I have some time and money to get
a new cassetteplayer.

Riff 1
|3x-----------------------------|1x------------------------------------------|
|-------------------------------|--------------------------------------------|
|-----9-------------------------|--------------------------------------------|
|-----9-------9-------7---------|----------------------------------9-----9---|
|-----7-------9-------7---------|----------------------------------9-----9---|
|-0-0-----0-0-7---0-0-5---------|------3-3-3-3-3-3-3-3-7-7-7-7-7-7-7-7-7-7---|

Fill
|----------------------------------------------------------------------------|
|----------------------------------------------------------------------------|
|----------------------------------------------------------------------------|
|----------------------------------------------------------------------------|
|----------------------------------------------------------------------------|
|-0-0-0-0-0-0-0-0-0-0-0-0-0-0-0-0-0-0----------------------------------------|

Riff 2
|-2x-------------------------------------------------------------------------|
|----------------------------------------------------------------------------|
|--------------------------------9---9---------------------------------------|
|-2--------------9---9-----------9---9---------------------------------------|
|-2--------------9---9-----------7---7---------------------------------------|
|-0--------0--0--7---7-----0--0----------------------------------------------|

|-2x-------------------------------------------------------------------------|
|----------------------------------------------------------------------------|
|----------------------------------------------------------------------------|
|--7-------6-------7-------6-------7---6-----9-------------------------------|
|--7-------6-------7-------6-------7---6-----9-------------------------------|
|--5--0-0--4--0-0--5--0-0--4--0-0--5-0-4-----7-------------------------------|

Chorus (Riff 1)

Play Riff 2

Play Chorus

Solo (Riff 2 2x)
|----------------------------------------------------------------------------|
|----------------------------------------------------------------------------|
|------------------------------------12-14--14-12-----14-14-14-14-14-14-14-14|
|------------------12-14--14-12-------------------14-------------------------|
|-10-12--12-10------------------14-------------------------------------------|
|--------------12------------------------------------------------------------|

|----------------------------------------------------------------------------|
|----------------------------------------------------------------------------|
|-14-12----12-------------------------------------------------12-14-12-------|
|-------14----14-12-14-12----12-------------------------12-14----------14----|
|-------------------------14----14-12-14-12-------12-14----------------------|
|-------------------------------------------15-12----------------------------|

|-----------12--12--------T-----T-----T-----T-----T-----T-----|--------12----|
|--------12-----12--------17p16h17p16h17p16-15p12h15p12h15p12-|-15(17)----15-|
|-14(16)--------14(16)----------------------------------------|--------------|
|-------------------------------------------------------------|--------------|
|-------------------------------------------------------------|--------------|
|-------------------------------------------------------------|--------------|

|----12----------------------------------------------------------------------|
|-12----15-12----12----------------------------------------------------------|
|-------------14----14-12----12----------------------------------------------|
|-------------------------14----14-12-14-12----12----------------------------|
|-------------------------------------------14----14-13-12-14-13-12----------|
|-------------------------------------------------------------------15-12-10-|

|----------------------------------------16h17p16h17p16-|--------15----------|
|-------------------------------12-13-15----------------|-15(16)----15-12----|
|----------------------11-12-14-------------------------|--------------------|
|-------------10-12-14----------------------------------|--------------------|
|----10-12-14-------------------------------------------|--------------------|
|-12----------------------------------------------------|--------------------|

|----------------------------------------------------------------------------|
|-13(15)--12/\/\/\/\---------5-------5-------5------5------------------------|
|-----------------------4(6)----4(6)----4(6)---4(6)----4(6)-br--2------------|
|----------------------------------------------------------------------------|

Продолжаем грести бабос на ботах в Telegram.
Только в этот раз есть вариант автоматизировать это дело, привлекая рефералов. Вы можете заработать если »

|----------------------------------------------------------------------------| |----------------------------------------------------------------------------| |----------------------------------------------------------------------------| |-----------7-----------7-----------7-----------7----------------------------| |-6(8)-6(8)---6(8)-6(8)---6(8)-6(8)---6(8)-6(8)---6(8)-br-4------------------| |----------------------------------------------------------------------------| |----------------------------------------------------------------------------| |----------------------------------------------------------------------------| |----------------------------------------------------------------------------| |------5------5------5------5--------------5--5--5-5--6--6-6-7-7-7-8-8-8-9---| |-4(6)---4(6)---4(6)---4(6)---4(6)-br-2----6--6--6-6--7--7-7-8-8-8-9-9-9-10--| |----------------------------------------------------------------------------| |----------------------------------------------------------------------------| |----------------------------------------------------------------------------| |----------------------------------|------12-12-----12-12-------12-12--------| |-9--9--9--10-10-11-11-12-12-13-13-|------12-12-----12-12-------12-12--------| |-10-10-10-11-11-12-12-13-13-14-14-|-14(16)----14(16)----14(16)-------14(16)-| |----------------------------------|-----------------------------------------| |----------------------------------|-----------------------------------------| |----------------------------------|-----------------------------------------| |-12-12--------12-12--------12-12--------12-12---17p12----17p12----17p12-----| |-12-12--------12-12--------12-12--------12-12---------12-------12-------12--| |-------14(16)-------14(16)-------14(16)-------------------------------------| |----------------------------------------------------------------------------| |----------------------------------------------------------------------------| |----------------------------------------------------------------------------| |--------15-----------------15----17(19)----19-19-19----------19-19----------| |-15(16)----15-12----15(16)----15--------------------17-17-17-------17-17-17-| |----------------------------------------------------------------------------| |----------------------------------------------------------------------------| |----------------------------------------------------------------------------| |----------------------------------------------------------------------------| |-19----19(21)-br-19(21)-br-19(21)-br-19-17-19-21-19-17----------------------| |----17-------------------------------------------------20-19-17----------17-| |----------------------------------------------------------------19-18-16----| |----------------------------------------------------------------------------| |----------------------------------------------------------------------------| |----------------------------------------------------------------------------| |-------17-19-21-19-17-19-21-19-17-------------------------------------------| |-19-20----------------------------20-19-17----------------------------------| |-------------------------------------------19-18-16-18-16-14-16-14----------| |-------------------------------------------------------------------17-------| |----------------------------------------------------------------------------| |----------------------------------------------------------------------------| |--------19------------------------------------------------------------------| |-19(21)----19-----------19----------17-17-17-15-15-15-14-14-14-12-12-12-10--| |-----------------18(20)----18-16----18-18-18-16-16-16-14-14-14-13-13-13-11--| |----------------------------------------------------------------------------| |----------------------------------------------------------------------------| |----------------------------------------------------------------------------| |----------------------------------------------------------------------------| |-10-10-----9-9-9-10-10-10-12-12-12-14-14-14---17p12----17p12----17p12-------| |-11-11-----9-9-9-11-11-11-13-13-13-14-14-14---------14-------14-------14----| |----------------------------------------------------------------------------| |----------------------------------------------------------------------------| |----------------------------------------------------------------------------| |-17p12----12----------------------------------------------------------------| |-------17----17-12--17-17-17-15-15-15-14-14-14-12-12-12-10-10-10--9-9-9-10--| |--------------------18-18-18-16-16-16-14-14-14-13-13-13-11-11-11--9-9-9-11--| |----------------------------------------------------------------------------| |----------------------------------------------------------------------------| |----------------------------------------------------------------------------| |-----------------------------------14-15-17-15-14----17-15-14----17(19)-----| |-10-10-12-12-12-14-14-14--14-15-17----------------17----------17------------| |-11-11-13-13-13-14-14-14----------------------------------------------------| |----------------------------------------------------------------------------| |----------------------------------------------------------------------------| |----------------------------------------------------------------------------| Play Chorus (Except the last part) Then the Chorus goes 1 step higher (Play it now F#- C# - B only this few times Then Play Chorus normally

искать в аптеке
список лекарств






О сайтеАккордыХит-парадПоискУроки ФорумыИщу песню
ПрограммыСвежачок-сПодпискаСтатьи
Яндекс.Метрика