Табулатура Manowar | Fast Taker гитара табулатуры уроки тексты песен Manowar текст lyrics песня аккорды песни ноты нота электрогитара струна  
   А Б В Г Д Е Ж З И К Л М Н О П Р С Т У Ф Х Ч Ш Ы Э Ю Я       Разные песни
1-9 A B C D E F G H I J K L M N O P Q R S T U V W Y Z      Все исполнители in english

    



группа Manowar, Табулатура песни Fast Taker

Продолжаем грести бабос на ботах в Telegram.
Только в этот раз есть вариант автоматизировать это дело, привлекая рефералов. Вы можете заработать если »

Группа: Manowar - другие аккорды (25),   о группе (16 статей),   диски (15),   фотографии (37)
Табулатура песни: Fast Taker
Просмотров: 1146




    


Manowar: Fast Taker (Battle Hymns)
Transcribed by HeXa(Heikki.Mustonen@kymp.net)

Standard Tuning

INTRO 2x
|----------------------------------------------------------------------------|
|----------------------------------------------------------------------------|
|-2----5----9--5------7----11--7-----12----16-12-----------------------------|
|-2----5----------5---7-----------7--12----------12--------------------------|
|-0----3--------------5--------------10--------------------------------------|
|----------------------------------------------------------------------------|

Riff 1 8x
|-------------------------------|-Fill---------------------------------------|
|-------------------------------|--------------------------------------------|
|-2----5---4---5--7---4-4--5----|--------------------------------------------|
|-2----5---4---5--7---4-4--5----|----2---------------------------------------|
|-0--0-3-0-2-0-3--5---2-2--3----|----2---------------------------------------|
|-------------------------------|----0---------------------------------------|

Bass Fill (Play at the end of the fourth Riff 1)
|-14--12---------------------------------------------------------------------|
|---------14-12-10-----------------------------------------------------------|
|------------------12-10-----------------------------------------------------|
|----------------------------------------------------------------------------|

Play Riff 1 4x

Riff 2 2x
|----------------------------------------------------------------------------|
|----------------------------------------------------------------------------|
|-2----5---4---5--7---4--4--5------------------------------------------------|
|-0--0-3-0-2-0-3--5---2--2--3------------------------------------------------|
|----------------------------------------------------------------------------|
|----------------------------------------------------------------------------|

Play Riff 1 2x

Chorus
|----------------------------------------------------------------------------|
|----------------------------------------------------------------------------|
|----------------------------------------------------------------------------|
|-3--3--3--3--3--3--5--5--5--5--5--5--7--7--7--7--7--7---7---5-5--7-7-7-7-7--|
|-3--3--3--3--3--3--5--5--5--5--5--5--7--7--7--7--7--7---7---5-5--7-7-7-7-7--|
|-1--1--1--1--1--1--3--3--3--3--3--3--5--5--5--5--5--5---5---3-3--5-5-5-5-5--|

|----------------------------------------------------------------------------|
|----------------------------------------------------------------------------|
|----------------------------------------------------------------------------|
|--------------3--3-3--3--3-3-3-3--5-5-5-5-5-5-5-5--2-2-2-2-2-2-2-2-2-2-2--2-|
|--------------3--3-3--3--3-3-3-3--5-5-5-5-5-5-5-5--2-2-2-2-2-2-2-2-2-2-2--2-|
|--5--3--2--1--1--1-1--1--1-1-1-1--3-3-3-3-3-3-3-3--0-0-0-0-0-0-0-0-0-0-0--0-|

Fast Taker...
|----------------------------------------------------------------------------|
|----------------------------------------------------------------------------|
|-7-7-7--5-7-7-7-7-7-5-7-7-7-7-5-7-7-7-7----7--5--3--0-----------------------|
|----------------------------------------------------------------------------|

Play Riff 1 4x

Play Riff 2 2x

Play Riff 1 2x

Play Chorus

Bass solo
|----------------------------------------------------------------------------|
|-7h10p7h10p7h10p7h10p7h10p7h10p7h10p7h10p7h10--7h10/12-7h10/12-7h10/12-7h12-|
|----------------------------------------------------------------------------|

Продолжаем грести бабос на ботах в Telegram.
Только в этот раз есть вариант автоматизировать это дело, привлекая рефералов. Вы можете заработать если »

|----------------------------------------------------------------------------| |----------------------------------------------------------------------------| |-14-10----14-10----10-------------------------------------10-12(14)-14(16)--| |-------12-------12----14-12-10----12-10----------10-12-14-------------------| |-------------------------------13-------13-12-10----------------------------| Guitar solo (Play Riff 1 4x, Riff 2 2x, Riff 1 2x, Chorus) |----------------------------------------------------------------------------| |---------------------------------------5----5----5----5----5----5----8-5----| |-----------------5-7-5---7-5---7-5-----7(9)-7(9)-7(9)-7(9)-7(9)-7(9)-----7--| |-7--7-7-7--7--7--------7-----7-----7----------------------------------------| |----------------------------------------------------------------------------| |----------------------------------------------------------------------------| |---------8-5---5-----------8-5---8-5---8-5---8-5---8-5-8-5---8-5-8-5---8-5--| |-8-5---------8---8-5-8-5-------8-----8-----8-----8---------8---------8-----8| |-----7-------------------7--------------------------------------------------| |----------------------------------------------------------------------------| |----------------------------------------------------------------------------| |----------------------------------------------------------------------------| |-----------------------------------------|----------------------------------| |8-5---5----------------------------------|------10-10-10-10-10------10-10-10| |----7---7-5-7-5---5----------------------|-9/11-11-11-11-11-11-9/11-11-11-11| |----------------7---7-5-7-5---5----------|----------------------------------| |----------------------------7---7-5-5(7)-|----------------------------------| |-----------------------------------------|----------------------------------| |--------10--------10--------10--------10---------17-14----------------17----| |-13(15)----13(15)----13(15)----13(15)-----17(19)---------17-14--17-20-------| |----------------------------------------------------------------------------| |----------------------------------------------------------------------------| |----------------------------------------------------------------------------| |----------------------------------------------------------------------------| |-------17-------17-------17-------17-20-17----20-17----20-17----20-17-------| |-17-20----17-20----17-20----17-20----------20-------20-------20-------20----| |----------------------------------------------------------------------------| |----------------------------------------------------------------------------| |----------------------------------------------------------------------------| |----------------------------------------------------------------------------| 1st ending |-20(22)-br-17-------------|2x--------------------------------|--------------| |--------------20-17-------|----------------------------------|--------------| |--------------------19-17-|----------------------------------|14~--14-14-14-| |--------------------------|----------------------------------|--------------| |--------------------------|----------------------------------|--------------| |--------------------------|--5--6--8--6--5----7--8--10--8--7-|--------------| 2nd |----------------------------------------------------------|-19(20)-19(20)-17| |-13--------15(17)-br-13-----15(17)-15(17)-15(17)-br-13----|-----------------| |----14-14---------------14-----------------------------14-|-----------------| |----------------------------------------------------------|-----------------| |----------------------------------------------------------|-----------------| |----------------------------------------------------------|-----------------| |----------------------------------------------------------------------------| |-17-------------------------------------------------------------------------| |----------------------------------------------------------------------------| |----------------------------------------------------------------------------| |----------------------------------------------------------------------------| |----------------------------------------------------------------------------| Play Riff 1 4x Play Riff 2 2x Play Riff 1 2x Play Chorus

лекарство в аптеке
список лекарств






О сайтеАккордыХит-парадПоискУроки ФорумыИщу песню
ПрограммыСвежачок-сПодпискаСтатьи
Яндекс.Метрика