Табулатура Morbid Angel | God of the emptiness гитара табулатуры уроки тексты песен Morbid Angel текст lyrics песня аккорды песни ноты нота электрогитара струна  
   А Б В Г Д Е Ж З И К Л М Н О П Р С Т У Ф Х Ч Ш Ы Э Ю Я       Разные песни
1-9 A B C D E F G H I J K L M N O P Q R S T U V W Y Z      Все исполнители

    



группа Morbid Angel, Табулатура песни God of the emptiness

Группа: Morbid Angel - другие аккорды (1)
Табулатура песни: God of the emptiness
Просмотров: 1457




    


                       The Guitar Part
                       ---------------



Most of this song is being played by two guitars. In some places the

two guitars are arranged for one guitar.



   80 bpm

Intro

4/4              3/4            4/4                           vib.

|----------------|--------------|-----------------|-0----------------|
|----------------|--------------|-----------------|-0--------16------|
|--9-------------|--------------|-5/(10)-(10)\----|-4-6-7-9/---------|
|--9------4/-9-9\|\(8)-9\-------|-----------------|------------------|
|--7---------7---|--------1-1-1-|-3/(8)---(8)\----|-2----------------|
|--0--0-0-2/-7-7\|\(6)-7\-1-1-1-|-----------------|--------------0-0-|

|  q  e e e  e q   (q) q  s s e   s (q..) (h)       e e e e  q   e e
|     PM-|                PM---|                                 PM-|
|4/4             3/4            4/4
|----------------|--------------|-----------------|------------------|
|----------------|--------------|-----------------|------------------|
|----------------|--------------|-----------------|------------------|
|-2--------------|-(2)----------|-3-------(3)\----|------------------|
|-2--------------|-(2)----------|-3-------(3)\----|-2-4-5-5--8-------
|-0--------------|-(0)----1-1-1-|-1-------(1)\----|-0-2-3-3--6---0-0-|

  w                (h)    s s e   h       (h)       e e e e  q   e e

                          PM---|                                 PM-|



both guitars                   vib.

|---------------------------------|-----------------------------------|
|---------------------------------|-----------------------------------|
|-8/(9)\(8)-----------------------|-------------8/(9)\(8)\------------|
|---------------------------------|-----------------------------------|
|-6/(7)\(6)p(0)-8/(9)-(9)\-4-9-5--|-(0)-(0)-(0)-6/(7)\(6)\-8/(9)-(9)\-|
|---------------6/(7)-(7)\-2-7-6--|--0---0---0-------------6/(7)-(7)\-|

  s (s) (s) (s) s (e) (s)  e e q     q   e   e  s (s) (e)  s (e) (s)

                                     PM-------|



2/4

|---------|    Play these seven measures again for verse 1  :
|---------|         Lies
|-6/(7)-7-|         And you fill their souls
|---------|         with all oppressions of this world
|-4/(5)-5-|
               And all the glory you receive
---------|

| e (e) q

|

|2/4

|---------|
|---------|
|---------|
|---------|
|-4/(5)---|
|-2/(3)-6-|

  e (e) q




Pre-chorus 1 & 2

4/4

 So what makes you supreme   Lies  And your crown is falling

|------------------|--------------------|------(7)----------|
|------------------|--------------------|-------------------|
|-9-9-11-12-11-----|--------------------|-------------------|
|--------------7-5-|-----------2/-9--9--|-9--8-----9--------|
|-7-7-9--10-9--5-3-|-9-4-4-2-2----10-10-|-10-9-----9--4-7-5-|
|-0----------------|-7-2-2-0-0----------|----------7--2-5-3-|

| q e e  e  e  e e   e e q s s e  e  e    e  s (s) q. e e e

|4/4

|------------------|--------------------|-------------------|
|------------------|--------------------|-------------------|
|------------------|--------------------|-------------------|
|-2-2-4--5--4--7-5-|-4------------------|----------4--------|
|--------------5-3-|-2-4-4--------------|----------2--4-7-5-|
|-0-0-2--3--2------|---2-2-0-0-0--3--3--|-3--2-x------2-5-3-|

  q e e  e  e  e e   e e q s s e  e  e    e  s s   q. e e e



  I offer fantasy      And you creator  blind with envy

|------------------|--------------------|------x--------|
|------------------|--------------------|------x--------|
|-9-9-11-12-11-----|--------------------|------x--------|
|--------------7-5-|-----------2/-9--9--|-9--8---9------|
|-7-7-9--10-9--5-3-|-9-4-4-2-2----10-10-|-10-9---9--4-7-|
|-0----------------|-7-2-2-0-0----------|--------7--2-5-|

| q e e  e  e  e e   e e q s s e  e  e    e  s s q. e q

|

|------------------|--------------------|---------------|
|------------------|--------------------|---------------|
|------------------|--------------------|---------------|
|-2-2-4--5--4--7-5-|-4------------------|--------4------|
|--------------5-3-|-2-4-4--------------|--------2--4-7-|
|-0-0-2--3--2------|---2-2-0-0-0--3--3--|-3--2-x----2-5-|

  q e e  e  e  e e   e e q s s e  e  e    e  s s q. e q


Chorus 1 & 2 :

 Let the children come to me  Their mother loves me so shall they

    full                1/2  1/2             1/2

    /\                  /   /\               |\

|---------------------------|----------------------------|
|---------------------------|-----------------------/10\-|
|---------------------------|-----------------------/10\-|
|---------------------------|-----------------------/10\-|
|---------------------------|----------------------------|
|-1-----(1)-0-1-0-2-0-1---2-|----(2)-0-1-0-1--(1)-2------|

  s (e) (s) e e e e s e   s (e.) (s) e e s e  (s) s  e.

                                    ( first time :e  e  )


 Woman bleeding ate my gifts  Men was close behind

   full                1/2   1/2

    /\                 /    /\

|---------------------------|------------------------------|
|---------------------------|------------------------------|
|---------------------------|------------------------------|
|---------------------------|------------------------------|
|---------------------------|------------------------------|
|-1-----(1)-0-1-0-2-0-1---2-|----(2)-0-1-0-0h1h2p1-3-3-3-3-|

  s (e) (s) e e e e s e   s (e.) (s) e e s t t s s s s s s

                                                   PM-----|

Just like a snake I'm slithering  Through my world divine  And like the cat
   I'm stalking  I'll take your soul and you'll be like


  Repeat last four measures for rest of chorus




  me                   In emptiness

  vib.                 PH.      vib.

|-----------------------------|----------------------------------|
|-----------------------------|----------------------------------|
|-----------------------------|----------------3/(4)---3/(4)\(3)-|
|-----------------------------|----------------------------------|
|--------4/(5)---4-----3------|--------4/(5)---4/(5)---4/(5)\(4)-|
|-2--0-0-2/(3)-0-2-0-0-1--0-0-|-2--0-0-2/(3)-0-2/(3)-0-2/(3)\(2)-|

Продолжаем грести бабос на ботах в Telegram.
Только в этот раз есть вариант автоматизировать это дело, привлекая рефералов. Вы можете заработать если »

q s s s (s) s s s s e s s q s s s (s) s s (s) s s (e) (s) PM-| PM PM-| PM-| PM-| PM PM In emptiness vib. PH. vib. |-----------------------------|----------------------------------| |-----------------------------|----------------------------------| |-----------------------------|----------------3/(4)---3/(4)\(3)-| |-----------------------------|----------------------------------| |--------4/(5)---4-----3------|--------4/(5)---4/(5)---4/(5)\(4)-| |-2--0-0-2/(3)-0-2-0-0-1--0-0-|-2--0-0-2/(3)-0-2/(3)-0-2/(3)\(2)-| q s s s (s) s s s s e s s q s s s (s) s s (s) s s (e) (s) PM-| PM PM-| PM-| PM-| PM PM vib. |------------------------| |------------------------| |------------------------| |------------------------| |--------4/(5)---4---3---| |-2--0-0-2/(3)-3-2-3-1---| q s s s (s) s e s e E PM-| PM PM Play all this again, except for this last measure ! Play this on the fourth measure of the Intro and Verse 2. vib. |--------------------------| |-14-----------------------| |-14-----------20----------| |----11-12-14/-------------| |------------------(0)-(0)-| |-------------------0---0--| e e e e q e e PM-----| vib. PH. |--------------------------|| |--------------------------|| |--------------------------|| |--------------------------|| |--------4/(5)---4-----3---|| |-2--0-0-2/(3)-0-2-0-0-1---|| q s s s (s) s s s s q Interlude |---------------------------------------------------| |---------------------------6---8---9---8-----9\(8)-| |-2-------------------------------------------------| |-3-2-2-2-2-2-2-2-2-3-5-3-3-3-5-5-6-6-5-5---6-6\(5)-| |---------------------------------------------------| |-1-0-0-0-0-0-0-0-0-1-3-1-1---3---4---3-----4-------| e t t t t t t t t s s t t s t s t s t t T t t (t) |----------------------------------------------| |---------------------------6---6---8---8---8--| |-2--------------------------------------------| |-3-2-2-2-2-2-2-2-2-3-5-3-3-3-3-3-5-5-5-5---5--| |----------------------------------------------| |-1-0-0-0-0-0-0-0-0-1-3-1-1---1---3---3--------| e t t t t t t t t s s t t s t s t s t t T s. |---------------------------------------------------| |---------------------------6---8---9---8-----9\(8)-| |-2-------------------------------------------------| |-3-2-2-2-2-2-2-2-2-3-5-3-3-3-5-5-6-6-5-5---6-6\(5)-| |---------------------------------------------------| |-1-0-0-0-0-0-0-0-0-1-3-1-1---3---4---3-----4-------| e t t t t t t t t s s t t s t s t s t t T t t (t) |----------------------------------------------| |---------------------------6---6---8---8---8--| |-2--------------------------------------------| |-3-2-2-2-2-2-2-2-2-3-5-3-3-3-3-3-5-5-5-5---5--| |----------------------------------------------| |-1-0-0-0-0-0-0-0-0-1-3-1-1---1---3---3--------| e t t t t t t t t s s t t s t s t s t t T s. |---------------------------------------------------| |---------------------------------------------------| |-----------2-8-10-----8---10---11---10-----11\(10)-| |-5---------2---------------------------------------| |-6-5-5-0-0-0-6-8--6-6---8----9----8------9---------| |---------------------------------------------------| e t t t t e s s t t s t s t s t t T t t (t) |---------------------------------------|| |---------------------------------------|| |-----------7---8-10-----8---8---10-----|| |-5-------------------------------------|| |-6-5-5-0-0-5-0-6-8--6-6---6-----8------|| |---------------------------------------|| e t t t t s s s s t t s t t s q (...) ^play as long as you want 54 bpm 7/8 4/4 2 times ||--------------------------|-----------------------------|| ||--------------------------|-----------------------------|| ||-o-9-10-9/(10)-12-13\-----|-8-8\(7)-7-----------------o-|| ||-o------------------------|---------------------------o-|| ||---7-8--7/(8)--10-11\-----|-6-6\(5)-5-5\(2)-4---4-4-2---|| ||----------------------0-0-|-----------6\(0)-5-0-5-5-3---|| q e s (s) e e s s q s (s) e s (s) e s s s s 7/8 5/8 |------------------------|-----------------| |------------------------|-----------------| |-9-10-9/(10)-12-13\-----|-8-8\(7)-7-------| |------------------------|-----------------| |-7-8--7/(8)--10-11\-----|-6-6\(5)-5-5\(2)-| |--------------------0-0-|-----------6\(0)-| q e s (s) e e s s q s (s) e s (s) Bow to me faithfully Bow to me splendidly 4/4 2 times 3/8 ||----------------------------|---------------------------||------------| ||----------------5-----------|---------------------------||------------| ||-o-6---6----/9----8/(9)-----|-6---6----/9--9\)8)-8\---o-||-6---6-6----| ||-o--------------------------|-------------------------o-||------------| ||---4---4----/7--7-6/(7)-x-4-|-4---4----/7--7\(6)-6\-x---||-4---4-4-/7-| ||---5-5-5-5-5/8--8-7/(8)-x-5-|-5-5-5-5-5/8--8\(7)-7\-x---||-5-5-5-5----| e s s s s q e s (s) s s e s s s s q s (s) e. s e s s s s PM PM-| PM PM-| PM 7/8 4/4 |------------------------|---------------------------| |------------------------|---------------------------| |-9-10-9/(10)-12-13\-----|-8-8\(7)-7-----------------| |------------------------|---------------------------| |-7-8--7/(8)--10-11\-----|-6-6\(5)-5-5\(2)-4---4-4-2-| |--------------------0-0-|-----------6\(0)-5-0-5-5-3-| q e s (s) e e s s q s (s) e s (s) e s s s s 7/8 5/8 |------------------------|-----------------|








О сайтеАккордыХит-парадПоискУроки ФорумыИщу песню
ПрограммыСвежачок-сПодпискаСтатьи
Яндекс.Метрика