Аккорды Red Hot Chili Peppers | Scar_tissue гитара табулатуры уроки тексты песен Red Hot Chili Peppers текст lyrics песня аккорды песни ноты нота электрогитара струна  
   А Б В Г Д Е Ж З И К Л М Н О П Р С Т У Ф Х Ч Ш Ы Э Ю Я       Разные песни
1-9 A B C D E F G H I J K L M N O P Q R S T U V W Y Z      Все исполнители in english

    



группа Red Hot Chili Peppers, Аккорды песни Scar_tissue

Продолжаем грести бабос на ботах в Telegram.
Только в этот раз есть вариант автоматизировать это дело, привлекая рефералов. Вы можете заработать если »

Группа: Red Hot Chili Peppers - другие аккорды (395),   о группе (3 статей),   диски (15),   фотографии (113)
Аккорды песни: Scar_tissue
Просмотров: 7473




    

e|---5-----5----5-----------------
b|---6-----6----6--5--6--6-----6--
g|-------5------5--5--7--7-----7--
d|-3---3------3----5--7------7----  и.т.д.
a|-----------------3--5----5----5/3
e|---------------------------------


Ещё в этой песне есть три соляка.
                                  / -slide
Solo 1                           ^ -hammeron/pulloff

e|-8-5----5-3--3-5---5-7--
b|------------------------------

Solo 2

e|-10--10-8-5---5-3---8-5------10--12-8-5-5/8-3--8-5--10-12-13
b|---------------------------------------------------------


Solo 3

e|--17---17-15---15-12---12-10--10/8-8^10-10^8-8^10-10-
b|------------------------------------------------------
g|------------------------------------------------------

      
-10-8-5--8-3--8-5----------------5----5--5--5-----------------------
-------------------3/4/3-3----------------------3/5/3-3--3/5/1--1----
-------------------------------------------------------------------2-

       
----5---13/12-12--8-10-5------5/8/5-5
---------------------------------------
-------------------------------------

 
  F [xx3565]    C [x3555x]
Scar tissue that I wish you saw

Продолжаем грести бабос на ботах в Telegram.
Только в этот раз есть вариант автоматизировать это дело, привлекая рефералов. Вы можете заработать если »

Dm [x5776x] Dm7 [x5756x] Sarcastic mister know it all Close your eyes and I\'ll kiss you ’cause With the birds I’ll share With the birds I’ll share This lonely view With the birds I’ll share This lonely view Push me up against the wall Young Kentucky girl in a push-up bra Fallin’ all over myself To lick your heart and taste your health ’cause With the birds I’ll share This lonely view... Blood loss in a bathroom stall Southern girl with a scarlet drawl Wave good-bye to ma and pa ’cause With the birds I’ll share With the birds I’ll share This lonely view With the birds I’ll share This lonely view Soft spoken with a broken jaw Step outside but not to brawl Autumn’s sweet we call it fall I’ll make it to the moon if I have to crawl and With the birds I’ll share This lonely view... Scar tissue that I wish you saw Sarcastic mister know it all Close your eyes and I’ll kiss you ’cause With the birds I’ll share With the birds I’ll share This lonely view With the birds I’ll share

лекарство в аптеке
список лекарств






О сайтеАккордыХит-парадПоискУроки ФорумыИщу песню
ПрограммыСвежачок-сПодпискаСтатьи
Яндекс.Метрика