Табулатура Metallica | Whiskey In The Jar Part 1 гитара табулатуры уроки тексты песен Metallica текст lyrics песня аккорды песни ноты нота электрогитара струна  
   А Б В Г Д Е Ж З И К Л М Н О П Р С Т У Ф Х Ч Ш Ы Э Ю Я       Разные песни
1-9 A B C D E F G H I J K L M N O P Q R S T U V W Y Z      Все исполнители in english

    



группа Metallica, Табулатура песни Whiskey In The Jar Part 1

Продолжаем грести бабос на ботах в Telegram.
Только в этот раз есть вариант автоматизировать это дело, привлекая рефералов. Вы можете заработать если »

Группа: Metallica - другие аккорды (225),   о группе (32 статей),   диски (11),   фотографии (49)
Табулатура песни: Whiskey In The Jar Part 1
Просмотров: 7186




    


#-----------------------------PLEASE NOTE-------------------------------------#
#This OLGA file is the author's own work and represents their interpretation  #
#of the song. You may only use this file for private study, scholarship, or   #
#research. Remember to view this file in Courier, or some other monospaced    #
#font. See http://www.olga.net/faq/ for more information.                     #
#-----------------------------------------------------------------------------#

Subject: m/metallica/whiskey_in_the_jar_part_1.tab
Date: Thu, 25 Feb 1999 09:35:57 PST

WHISKEY IN THE JAR


METALLICA


ALBUM: GARAGE INC.


TRANSCRIBED BY RUDY GUZMAN


E-MAIL: GUZMAN_84@HOTMAIL.COM  


gt1
d-------------------------------------------------------------|
A-------------------------------------------------------------|
F----3-------------------------4-4--4-4--4--------------------|
C--5-4--2-2-2-2-----2-2-2-2-5--5-5--5-5--5-5\4--2-2--2-2--2-2-|
G--5-4--2-2-2-2--2--2-2-2-2-5--5-5--5-5--5-5\4--2-2--2-2--2-2-|
D-------0-0-0-0--0--0-0-0-0---------------------0-0--0-0--0-0-|

   
gt2  
:|------------------------------------------------------------------------------|
:|------7-8---7-------------------7-8---7-------------------7-8---7-------------|
:|-77-9-----9---7--9/12~~~~--77-9-----9---7--9/12b~~~~--77-9----9---7--9/12~~~~-|
:|------------------------------------------------------------------------------|
:|------------------------------------------------------------------------------|
:|------------------------------------------------------------------------------|



:--------------------------|
:--------------------------|
:-------7------------------|
:-5-7-9---5-7-5--7bp5~~~~--|
:--------------------------|
:--------------------------|


Продолжаем грести бабос на ботах в Telegram.
Только в этот раз есть вариант автоматизировать это дело, привлекая рефералов. Вы можете заработать если »

other option for gt2 :------------------------|-----------------------|-----------------------| :-----5-7-8---7---5/8~~~~|---5-7-8---7---5/8b~~~-|----5-7-8---7---5/8~~~-| :-7-7-------7---7--------|77-------7---7---------|7-7-------7---7--------| :------------------------|-----------------------|-----------------------| :------------------------|-----------------------|-----------------------| :------------------------|-----------------------|-----------------------| :--------------------------| :--------------------------| :-------7------------------| :-5-7-9---5-7-5--7bp5~~~~--| :--------------------------| :--------------------------| verse :---------------------------------------------------------------------------| :---------------------------------------------------------------------------| :---4-4-----------------------------5--5-5--5--5-------4-4-4-4-4-4--4-4-4---| :5--5-5--5--5-5--5-2--2-2--2-2-2--2-5--5-5--5--5--5-5--5-5-5-5-5-5--5-5-5---| :5--5-5--5--5-5--5-2--2-2--2-2-2--2-3--3-3--3--3--3-3--5-5-5-5-5-5--5-5-5---| :------------------0--0-0--0-0-0--0-----------------------------------------| :-----------------------------------------------------------------------| :-----------------------------------------------------------------------| :4-4-4-4-4-4--4-4-4/3-------------------5-5-5-5-5-5-5-5--4-4-4-4-4-4-4-4| :5-5-5-5-5-5--5-5-5/4-2--2-2--2-2-2--2--5-5-5-5-5-5-5-5--5-5-5-5-5-5-5-5| :5-5-5-5-5-5--5-5-5/4-2--2-2--2-2-2--2--3-3-3-3---3-3-3--5-5-5-5-5-5-5-5| :---------------------0--0-0--0-0-0--0----------------------------------| verse ------- :|-----------------------------------------------------------------------------| :|------7-8---7-------------------7-8---7-------------------8-10b-10-10--10-12-| :|-77-9-----9---7--9/12~~~~--77-9-----9---7--9/12b~~~~--7-9--------------------| :|-----------------------------------------------------------------------------| :|-----------------------------------------------------------------------------| :|-----------------------------------------------------------------------------| :---------------------------------------------| :8h10p8-(8)-8h10p8-(8)------------------------| :----------------------------7----------------| :----------------------5/7-9---5-7-5-7bp5~~~~-| :---------------------------------------------| :---------------------------------------------|

лекарство в аптеке
список лекарств






О сайтеАккордыХит-парадПоискУроки ФорумыИщу песню
ПрограммыСвежачок-сПодпискаСтатьи
Яндекс.Метрика