Табулатура Metallica | Wherever I May Roam гитара табулатуры уроки тексты песен Metallica текст lyrics песня аккорды песни ноты нота электрогитара струна  
   А Б В Г Д Е Ж З И К Л М Н О П Р С Т У Ф Х Ч Ш Ы Э Ю Я       Разные песни
1-9 A B C D E F G H I J K L M N O P Q R S T U V W Y Z      Все исполнители in english

    



группа Metallica, Табулатура песни Wherever I May Roam

Группа: Metallica - другие аккорды (225),   о группе (32 статей),   диски (11),   фотографии (49)
Табулатура песни: Wherever I May Roam
Просмотров: 4414




    


#----------------------------------PLEASE NOTE---------------------------------#
#This file is the author's own work and represents their interpretation of the #
#song. You may only use this file for private study, scholarship, or research. #
#------------------------------------------------------------------------------##
        with SMTP id ; Thu, 19 Aug 1993 14:03:01 -0700
        id AA03943 (5.65c/FORTH-ICS-3.0-MHS-7.0); Thu, 19 Aug 1993 19:08:56 +0300
Message-Id: <9308191605.AA23476@icaros.ntua.gr>
Subject: WhereverIMayRoam.tab by Metallica
To: jamesb@animal-farm.nevada.edu
Date: Thu, 19 Aug 1993 19:05:52 +0300 (EET DST)
X-Mailer: ELM [version 2.4 PL21]
Mime-Version: 1.0
Content-Type: text/plain; charset=US-ASCII
Content-Transfer-Encoding: 7bit
Content-Length: 8370      


                  WHEREVER I MAY ROAM - METALLICA

Intro (Sitar arranged for guitar)

----------------|------------ ----|----------------|----------------|
------5-5s6-5---|------8-8s10 6---|5-----5-5s6-5---|(5)-------------| Repeat
----------------|------------ ----|----------------|----------------| this
------2-2s3-2---|------5-5s7- 3---|2-----2-2s3-2---|(2)-------------| line
----------------|------------ ----|----------------|----------------| once
0---------------|0----------- ---0|----------------|----------------|

----------------|------------    ----|------------------------|    ------|
------5-5s6-5---|------8-8s10 10s6---|5-----------------------|    ------|
----------------|------------    ----|------------------------|    ------|
------2-2s3-2---|------5-5s7-  7s3---|2-----------------------|    ------|
----------------|------------    ----|------------------------|    ------|
0---------------|0-----------    ----|0-----------------------|    5s20\-|

----------------|----------------|----------------|----------------|
----------------|----------------|----------------|----------------| Repeat 
----------------|----------------|----------------|----------------| this
----------------|------5-5s7-----|----------------|----------------| line
------7-7h8-7---|------------8---|7-----7-7h8-7---|(7)-------------| once
0---------------|----------------|0---------------|----------------|

--------|----------------|
--------|----------------|
--------|----------------|
--------|----------------|
(7)-----|7---8---9---10\-|
--------|5---6---7---8-\-|

Rhy. Fig.1                                         (end Rhy. Fig. 1)
----------------|----------------|----------------|----------------|
----------------|----------------|----------------|----------------| Repeat 
----------------|----------------|----------------|----------------| this
-------------tr-|------5-5s7-----|9------------tr-|----------------| line
2-----7-7h8-7(8)|7-----------8---|7-----7-7h8-7(8)|7---8---9---10--| once
0---0-----------|0---0-----------|0---0-----------|5---6---7---8---|

Rhy. Fig.2                                         (end Rhy. Fig. 2)
----------------|----------------|----------------|----------------|
----------------|----------------|----------------|----------------|
----------------|----------------|----------------|----------------|
-------------tr-|------5-5s7-----|9------------tr-|----------------|
5-6-7-8-7h8-7(8)|7-----------8---|7-----7-7h8-7(8)|7---8---9---10--|
----------------|0---0-----------|0---0-----------|5---6---7---8---|

--------|----------------|----------------|----------------|------------------|
--------|----------------|----------------|----------------|------------------|
--------|----------------|----------------|----------------|------------------|
--------|2---------------|----------------|----3-----------|------------------|
5-6-7-8-|2---------------|----------------|--3-------------|------------------|
--------|0---------------|----------------|1---------------|------------------|

       And the road becomes my bride     And the road becomes my bride
----------------|----------------|----------------|----------------|
----------------|----------------|----------------|----------------|
------0---------|----------------|----------------|----------------|
----2-----------|----------------|----3-----------|----------------|
--2-------------|----------------|--3-------------|----------------|
0---------------|----------------|1---------------|----------3s10\-|

E5--------------|----------------|Bb5-------------|----------------|
       I have stripped of all but pride,        so in her I do  con-

A5--------------|----------------|Bb5-------------|------------E-E-|
fide,   and she keeps me satis-   fied          Gives me all I need

E5--------------|----------------|Bb5-------------|----------------|
        And with dust in throne I crave, only knowledge will  I save
--------0-------|--------0-------|----------------|----------------|
------------0---|------------0---|--------3-------|--------3-------|
Узнай ВСЕ о своем друге в ВК или FB
----------------|----------------|------------3---|------------3---| ----------------|----------------|----3-----------|----3-----------| ----2-----------|----2-----------|1---------------|1---------------| 0---------------|0---------------|----------------|----------------| G5--------------|----------------|Bb5-------------|----------------| To the game you stay a slave rover, wanderer ----------------|----------------|----------------|----------------| --------3-------|--------3-------|--------3-------|--------3-------| ------------3---|------------3---|------------3---|------------3---| ----------------|----------------|----3-----------|----3-----------| ----1-----------|----1-----------|1---------------|1---------------| 3---------------|3---------------|----------------|----------------| nomad, vagabond call me what you will ----------------|----------------|----------------|----------------| ----------------|----------------|----------------|----------------| ----------------|----------------|----------------|----------------| ----------------|----------------|------5-5s7-----|9------------tr-| 1---1---2---3---|5-6-7-8-7h8-7---|7-----------8---|7-----7-7h8-7(8)| ----------------|----------------|0---0-----------|0---0-----------| Oh But I'll take my time anywhere free to ----------------|----------------|----------------|----------------| ----------------|----------------|----------------|----------------| ----------------|----------------|-------------tr-|----------------| ----------------|3---3-------3---|----3---2h3-2(3)|2---2-------2---| 7---8---9---10--|3---3-------3---|----3-----------|2---2-------2---| 5---6---7---8---|1---1---1-1-1---|1-1-1-----------|0---0---0-0-0---| speak my mind anywhere And I'll redefine anywhere ----------------|----------------|----------------| ----------------|----------------|----------------| -------------tr-|3---3-------3---|----3--------tr-| ----2---2h3-2(3)|3---3-------3---|----3---2h3-2(3)| ----2-----------|1---1---1-1-1---|1-1-1-----------| 0-0-0-----------|----------------|----------------| A5--------------|----------------|G5--------------|------------D-\-| Anywhere I roam Where I lay my head is home, yeah First time play Rhy.Fig. 1 and continue as follows, second time skip to CODA And the earth becomes my throne And the earth becomes my throne --------|----------------|----------------|----------------|------------------| --------|----------------|----------------|----------------|------------------| --------|----------------|----------------|----------------|------------------| --------|2---------------|----------------|----3-----------|------------------| 5-6-7-8-|2---------------|----------------|--3-------------|------------------| --------|0---------------|----------------|1---------------|------------3s10\-| Continue with Verse 2 CODA ----------------|-------- --------|----------------|---------- -- ----| ----------------|-------- --------|----------------|---------- -- ----| ----------------|-----tr- ----9---|----------------|----8-9-11s12 8---| -------------tr-|6-7-6(7) 9-10----|------------6-7-|9-10------ -- ----| 2----/7-7-8-7(8)|-------- --------|2-------7-8-----|---------- -- ----| 0---0-----------|-------- --------|0---0-0---------|---------- -- ----| For the next line you have two guitars notated one above the other. ----------------|-------- --------|----------------|---------- -- ----| ----------------|-----tr- ----8---|----------------|----7-8-10 12 7---| -------------tr-|4-5-4(5) 8-9-9---|------------4-5-|8-9-8-9-11 12 8---| --------6-7-6(7)|6-7-6(7) 9-10----|--------6-7-6-7-|9-10------ -- ----| 2---2---7-8-7(8)|-------- --------|2---2---7-8-----|---------- -- ----| 0---0-0---------|-------- --------|0---0-0---------|---------- -- ----| Play prechorus and chorus again Solo 1 Play prechorus and last chorus which goes: A5--------------|----------------|G5--------------|----------------| Anywhere I roam Where I lay my head is home C5--------------|----------------|B5--------------|Bb5-------E-G-F#| Carved upon my stone my body lie, but still I roam yeah yeah Rhy.fig.1 Rhy.fig.2 until end over solo 2

искать в аптеке
список лекарств






О сайтеАккордыХит-парадПоискУроки ФорумыИщу песню
ПрограммыСвежачок-сПодпискаСтатьи
Яндекс.Метрика