Табулатура Metallica | Until It Sleeps гитара табулатуры уроки тексты песен Metallica текст lyrics песня аккорды песни ноты нота электрогитара струна  
   А Б В Г Д Е Ж З И К Л М Н О П Р С Т У Ф Х Ч Ш Ы Э Ю Я       Разные песни
1-9 A B C D E F G H I J K L M N O P Q R S T U V W Y Z      Все исполнители in english

    



группа Metallica, Табулатура песни Until It Sleeps

Группа: Metallica - другие аккорды (225),   о группе (32 статей),   диски (11),   фотографии (49)
Табулатура песни: Until It Sleeps
Просмотров: 5441




    


#----------------------------------PLEASE NOTE---------------------------------#
#This file is the author's own work and represents their interpretation of the #
#song. You may only use this file for private study, scholarship, or research. #
#------------------------------------------------------------------------------##
#

From jhayden@netaxs.com Wed Jun  5 02:56:21 1996
Date: Tue, 04 Jun 1996 22:52:13 -0400



i know you shouldnt be getting incoming tablature but i have the 
FULL tablature for until it sleeps...i was the first to make the tab
on EARTH cause i checked everywhere and no one else had it but
now maybe 3 people made their own version and they are all WRONG...
please put this up...i am the first to make the tab and the best...


BAND: METALLICA
ALBUM: LOAD
SONG: UNTIL IT SLEEPS
AUTHOR:  OK NOW I AM TYPING THIS IN BUT MY BROTHER CARL HAYDEN FIGURED=20
IT OUT... I GIVE ALL THE CREDIT TO HIM...BTW MY NAME IS PAT HAYDEN...
                     COOL SONG BUT CRAPPY VIDEO!
 ___________NOTES_____________
 | /   slide up               |  i am making this on may 29th 1996
 | pm   palm-mute             |  so i KNOW i am the first to tab
 | \   slide down             |  this out...
 | p   pull off               |
 | h   hammer on              |
 | b(#)   bend up to note     |
 |____________________________|
=20
              SONG LAYOUT
              -----------
  =20
   INTRO BASS LINE ONCE BEFORE LYRICS THEN ON THROUGH REST OF SONG
   VERSE RIFF X 2
   CHORUS RIFF X 4
   VERSE RIFF X 1
   BRIDGE RIFF X 1
   VERSE RIFF X 2
   CHORUS RIFF X 4
   POST CHORUS RIFF X 4
   VERSE RIFF X 1
   BRIDGE RIFF X 1
   VERSE RIFF X 2
   CHORUS RIFF X 4
   POST CHORUS X 4
   SOLO *look at the tab to see when to play verse riff*
   CHORUS RIFF X 8
   VERSE RIFF X 2
   LAST RIFF X 1
   _-_-_-_-_-_-_-_

  =20
   INTRO BASS-LINE...(YOU CAN ALSO PLAY THIS ON GUITAR)
   a little slow on this riff....
 g:-------------------------------------:=20
 d:-------------------------------------:
 a:-------3-2----------3-2--------------:
 e:-5----------3--5----------0--1/5-----:


 VERSE (COOL RIFF)
                             ?  when you play the 1st                    =
     =20
 e:--------------------------5---:(5)try playing open A
 B:------5-------------------5---:
 G:---------7--5-------------x---:
 D:----------------9--7--5---x---: play right after line
 A:-0-0----------------------5---: of lyrics
 E:--------------------------5---:


 CHORUS (HEAVY PART)
    A5             G5      F5
 e:----------------------------------:
 B:----------------------------------:
 G:----------------------------------:
 D:----------------------------------:
 A:-7-7-7-7-7-7-7-7-5-5-5-5-3-3-3-3--:
 E:-5-5-5-5-5-5-5-5-3-3-3-3-1-1-1-1--:
   pm =3D=3D=3D=3D=3D=3D=3D=3D=3D=3D=3D=3D=3D=3D=3D=3D=3D=3D=3D=3D=3D=3D=
 =3D=3D=3D=3D=3D=3D


 BRIDGE RIFF (SIMILAR TO VERSE RIFF)
                   G5   F5
 e:--------------------------------:
 B:------5-------------------------:
 G:---------7--5------5-----3------:
 D:-------------------5-----3------:
 A:-0-0---------------5-----3----0-:
 E:----------------3-----1---------:

  POST CHORUS RIFF (IT GRIPS YOU RIFF)
   E5 X 7         D5 X 4  C5 X 9          D5 X 2
 e:---------------------------------------------:
 B:---------------------------------------------:
 G:---------------------------------------------:
 D:-9-9-9-9-9-9-9-7-7-7-7-5-5-5-5-5-5-5-5-5-7-7-:
 A:-7-7-7-7-7-7-7-5-5-5-5-3-3-3-3-3-3-3-3-3-5-5-:
 E:---------------------------------------------:

  SOLO (I GOT AN ACOUSTIC SO THIS IS MY BEST AT IT)=20
               ! means rhythm plays verse riff at that time w/ chord

  e:-/5-5-5-5-5-5-5-5-8-8-8-7-7-7-3-3--13b(14)-13b(14)--12p11-p9--11-:
  B:-----------------------------------------------------------------:   =
=20
  G:-----------------------------------------------------------------:
  D:-----------------------------------------------------------------:
  A:-----------------------------------------------------------------:
  E:-----------------------------------------------------------------:
     =20
  e:--------7p5---------1-1-1-0-3-3/8-8-8-7-7-7-2-2--13b(14)-13b(14)-:
  B:-5h6-8--------3-3-3----------------------------------------------:   =
=20
  G:-----------------------------------------------------------------:
  D:-----------------------------------------------------------------:
  A:-----------------------------------------------------------------:
  E:-----------------------------------------------------------------:
                                !                            !
  e:-12p11-p9--11----------7p5---------------------------------------:   =
                             =20
  B:----------------5h6-8-------------5--6--8--10--12b(13)---------5-:
  G:-----------------------------------------------------------------:
  D:-----------------------------------------------------------------:
  A:----------------------------0-0--------------------------0-0-----:
  E:-----------------------------------------------------------------:
                         !                            !
  e:------------------------------------------------------------------:  =
                                                =20
  B:-6--8--10--11b(12)--------5--6--8--10--12--13--15--17--18--19--20-:  =
                                                =20
  G:------------------------------------------------------------------:  =
                                                       =20
  D:------------------------------------------------------------------:  =
 =20
  A:---------------------0-0------------------------------------------:  =
 =20
  E:------------------------------------------------------------------:  =
 =20
 =20
                               =20
    LAST RIFF         =20
  g:----------------------------------------:                            =
                             =20
  d:----------------------------------------: bass  =20
  a:-------3-2------------------------------:   =20
  e:-5----------3--5----1/3--1--------------:   =20
  |                                         |
  |                                   ?     |
  e:----------------------------------5-----:                            =
                      =20
  B:----------------------------------5-----:                            =
                      =20
  G:----------------------------------x-----: guitar                     =
                                   =20
  D:----------------------------------x-----:   =20
  A:-----------------------------5----5-----:   =20
  E:---------------------------5---5--5-----:   =20
                                      let chord ring


      AND NOW FOR THE LYRICS...   ch chorus     =20
                                  v# verse #                  =20
                                  pc post chorus
                                                              =20
ver1  WHERE DO I TAKE THIS PAIN OF MINE
      I RUN BUT IT STAYS RIGHT BY MY SIDE

ch    SO TEAR ME OPEN POUR ME OUT
      THERE'S THINGS INSIDE THAT SCREAM AND SHOUT
      AND THE PAIN STILL HATES ME
      SO HOLD ME...UNTIL IT SLEEPS

ver2  JUST LIKE THE CURSE JUST LIKE THE STRAY
      YOU FEED IT ONCE AND NOW IT STAYS
      NOW IT STAYS!!!

ch    SO TEAR ME OPEN BUT BEWARE
      THERE'S THINGS INSIDE WITHOUT A CARE
      AND THE DIRT STILL STAINS ME
      SO WASH ME UNTIL I'M CLEAN

pc    IT GRIPS YOU SO HOLD MEeeee
      IT STAINS YOU SO HOLD MEeee
      IT HATES YOU SO HOLD MEeeee
      IT HOLDS YOU SO HOLD MEeeee
      UNTIL IT SLEEPS!!!!!!!

ver3  SO TELL ME WHY YOU'VE CHOSEN ME
      DON'T WANT YOUR GRIP DON'T WANT YOUR GREED
      DON'T WANT IT!!!!!!

ch    I'LL TEAR YOU OPEN MAKE YOU GONE
      NO LONGER CAN YOU HURT ANYONE
      AND THE FEAR STILL SHAKES ME
      SO HOLD ME...UNTIL IT SLEEPS

pc    IT GRIPS YOU SO HOLD MEeeee
      IT STAINS YOU SO HOLD MEeeee-yeah-uh-yeah
      IT HATES YOU SO HOLD MEeeeeeee-yeah-yeah
      IT HOLDS YOU, HOLDS YOU, HOLDS YOUoooooo
      UNTIL IT SLEEPS

   - =F0SOLO=F0=3D-  (Don't Want It) many times...

ch    SO TEAR ME OPEN BUT BEWARE
      THERE'S THINGS INSIDE WITHOUT A CARE
      AND THE DIRT STILL STAINS ME
      SO WASH ME TILL I'M CLEAN

ch    I'LL TEAR YOU OPEN MAKE YOU GONE
      NO LONGER WILL YOU HURT ANYONE
      AND THE HATE STILL SHAKES ME
      SO HOLD ME...UNTIL IT SLEEPS...until it sleeps, until it sleeps.

  EMAIL ME AT JHayden@netaxs.com...and real soon i will have my
  own web page and i will post everything there...

--------------182F642D23EA--


From puck916@m3.sprynet.com Tue Jun 18 17:45:31 1996
Message-ID: <31C7061E.59E0@m3.sprynet.com>
Date: Tue, 18 Jun 1996 13:40:14 -0600
X-Mailer: Mozilla 2.01 (Win95; U)
MIME-Version: 1.0
To: guitar@nevada.edu
Subject: Until it sleeps Tab
Content-Type: text/plain; charset=us-ascii
Content-Transfer-Encoding: 7bit
Content-Disposition: inline; filename="until_it_sleeps.tab"
X-email-warning: As a cautionary note, there have been recent instances of
        people forging mail addresses. If you have any reason to believe
        this message is not authentic, please contact the listed sender or
        System Computing Services at (702) 895-4585.
Status: RO

"Until it Sleeps"

Tabbed by Brian E    puck916@sprynet.com


Bass intro
Узнай ВСЕ о своем друге в ВК или FB
Very slow, fretless ---------------------------------- ---------------------------------- ---------------------------------- -0--5---s/8--7\s--0--5---s/8--7\s- -------------------- -------------------- -------------------- -0--5--s/8---1--0--5 Verse Guitar, tune down 1/2 step ------0--------------------5---------------------- ---------3--1--0-----------5---------------------- ------------------2--0-----5---------------------- ---2-----------------------7---------------------- -0-------------------------7---------------------- ---------------------------5---------------------- Chorus (The number of times each chord is played is wrong so listen to the CD.) Tons of distortion. ---------------------------------------------------------- ---------------------------------------------------------- --------------5-5-5-5-5--4-4-4---2-2-2-2-2---------------- --------------7-7-7-7-7--5-5-5---3-3-3-3-3---------------- -5-5-5--0-0-0--------------------------------------------- -3-3-3---------------------------------------------------- Bridge Riff ------0--------------------------- --------3-1----------0------------ ---------------0-----0------------ ---2-----------0-----3------------ -0-------------2-----3------------ -------------3-----1-------------- Post Chorus ------------------------------------ ------------------------------------ ------------------------------------ ----7-7-7---4-4-4--4---5------------ ----5-7-5---5-5-5--6---7------------ -0----------------------------------- Any questions corrections please e mail me at puck916@sprynet.com From holz@netins.net Sat Jun 22 19:41:02 1996 Date: Sat, 22 Jun 1996 12:38:18 -0700 Message-Id: <199606221938.MAA03152@post-office.nevada.edu> (MX V4.2 AXP) with SMTP; Sat, 22 Jun 1996 14:38:19 CST X-Sender: holz@netins.net (Unverified) X-Mailer: Windows Eudora Light Version 1.5.2 MIME-Version: 1.0 Content-Type: text/plain; charset="us-ascii" To: guitar@nevada.edu Subject: Until it Sleeps Tab X-email-warning: As a cautionary note, there have been recent instances of people forging mail addresses. If you have any reason to believe this message is not authentic, please contact the listed sender or System Computing Services at (702) 895-4585. Status: RO UNTIL IT SLEEPS by Metallica Transcribed by Don Bernholtz (holz@netins.net) The opening part after the bass intro: Eb|------0------------------5------ Ab|---------3---------------5-------- Gb|------------1--0---------5----- Db|---2--------------2------7------- Ab|---0---------------------7---- Eb|-------------------------5----- and then into the heavy part: (with heavy distortion) dist off.. Eb|--------|-----------------------------|--------------------------------- Bb|--------|-----1--3-1--0--1------------|----1--3-1--0--1--0--1----------- Gb|--------|-----2--2-2--0--0--2--3-2----|----2--2-2--0--0--0--0----------- Db|--5-5-5-|-------------------3--3-3----|--------------------------------- Ab|--5-5-5-|--0--------------------------|-0------------------------------- Eb|--3-3-3-|--------------------------3--|--------------------------------- ....play 3 times............. clean... Eb|----0----------------0----------------------5--------------------------- Bb|------3--1--0-----------3--1------------0---5--------------------------- Gb|---------------2-----------------0------0---5--------------------------- Db|-2----------------2--------------0------3---7--------------------------- Ab|-0----------------0--------------2------3---7--------------------------- Eb|------------------------------3------1------5--------------------------- The chorus: (There are two parts) (this is one of them...) (heavy dist.) (heavy dist.) Eb|-------------------| The higher ---7--5-3--2--3--0--------------- Bb|-------------------| part varies --------------------------------- Gb|-------------------| so try to --------------------------------- Db|--5--7-5--4--4--5--| listen to the --------------------------------- Ab|--7--7-7--5--6--7--| high end. --------------------------------- Eb|-------------------| --------------------------------- ....repeat.......... Besides the solo, and some very weird arpeggiated notes in the background in one part of the song, that's just about it. From luebanos@igs1.lnd.com Sun Jun 23 16:41:31 1996 id KAA05811; Sun, 23 Jun 1996 10:40:38 +0600 Message-Id: <1.5.4.32.19960623164518.0066c208@igs1.lnd.com> X-Sender: luebanos@igs1.lnd.com (Unverified) X-Mailer: Windows Eudora Light Version 1.5.4 (32) Mime-Version: 1.0 Content-Type: multipart/mixed; boundary="=====================_835566318==_" Date: Sun, 23 Jun 1996 11:45:18 -0500 To: guitar@nevada.edu Subject: Metallica, "Until it Sleeps" X-Attachments: C:\until_it_sleeps.tab X-email-warning: As a cautionary note, there have been recent instances of people forging mail addresses. If you have any reason to believe this message is not authentic, please contact the listed sender or System Computing Services at (702) 895-4585. Status: RO --=====================_835566318==_ Content-Type: text/plain; charset="us-ascii" Heres until it sleeps. Hope everyone enjoys it!!!! :) --=====================_835566318==_ Content-Type: text/plain; charset="us-ascii" Content-Disposition: attachment; filename="until_it_sleeps.tab" "Until it Sleeps" Metallica, Load Tabbed by J Luebanos Bass intro Very slow, fretless ---------------------------------- ---------------------------------- ---------------------------------- -0--5---s/8--7\s--0--5---s/8--7\s- -------------------- -------------------- -------------------- -0--5--s/8---1--0--5 Verse Guitar, tune down 1/2 step ------0--------------------5---------------------- ---------3--1--0-----------5---------------------- ------------------2--0-----5---------------------- ---2-----------------------7---------------------- -0-------------------------7---------------------- ---------------------------5---------------------- (The number of times each chord is played is probably wrong so listen to the CD.) Tons of distortion. Jason plays the root notes. ---------------------------------------------------------- ---------------------------------------------------------- --------------5-5-5-5-5--4-4-4---2-2-2-2-2---------------- --------------7-7-7-7-7--5-5-5---3-3-3-3-3---------------- -5-5-5--0-0-0--------------------------------------------- -3-3-3---------------------------------------------------- Bridge Riff ------0--------------------------- --------3-1----------0------------ ---------------0-----0------------ ---2-----------0-----3------------ -0-------------2-----3------------ -------------3-----1-------------- Post Chorus Tons of distortion. Jason plays the root notes. 'It ripes you.... ------------------------------------ ------------------------------------ ------------------------------------ ----7-7-7---4-4-4--4---5------------ ----5-7-5---5-5-5--6---7------------ -0-----------------------------------

искать в аптеке
список лекарств

Ремонт акпп

Официальный дилер Ford Статьи, советы по вождению, форум

akppex.ru








О сайтеАккордыХит-парадПоискУроки ФорумыИщу песню
ПрограммыСвежачок-сПодпискаСтатьи
Яндекс.Метрика