Табулатура Metallica | Unforgiven Ii гитара табулатуры уроки тексты песен Metallica текст lyrics песня аккорды песни ноты нота электрогитара струна  
   А Б В Г Д Е Ж З И К Л М Н О П Р С Т У Ф Х Ч Ш Ы Э Ю Я       Разные песни
1-9 A B C D E F G H I J K L M N O P Q R S T U V W Y Z      Все исполнители in english

    



группа Metallica, Табулатура песни Unforgiven Ii

Группа: Metallica - другие аккорды (225),   о группе (32 статей),   диски (11),   фотографии (49)
Табулатура песни: Unforgiven Ii
Просмотров: 6157




    
				   METALLICA

				THE UNFORGIVEN II
				      from
				     RELOAD


Transcribed by "Arecki" 

This is the intro and verse part.
Hope you like it! Any comments welcome at arekkac@friko2.onet.pl

Electric guitar 

E-|------------------------------|--------------------------------------------|
A-|------------------------------|-----------------------1--------------------|
D-|------------------------------|-----------------------2--------------------|
G-|--7---------------------------|-----------------------2--------------------|
B-|--7--0-2-3-5\3-5-5/7-5-3^5-3--|-0-2-3-5\3-5-3/5-0-0^2-0--------------------|
E-|--5---------------------------|--------------------------------------------|



Acoustic guitar 

E-|---------0--------------------3--------------------------------------------|
A-|-(1)--------1------1-----3^5--0--3^5^3---3^5-3/5\3-------------------------|
D-|-(2)--2---------------0--0-------------------------4---2^4b5b4-5-----------|
Узнай ВСЕ о своем друге в ВК или FB
G-|-(2)-----------------------------------0-----------------------------------| B-|-(0)---------0-2-3-----------------------------------0---------0-----------| E-|---------------------------------------------------------------------------| E-|-------0-----------------------3-------------------------------------------| A-|----------1---------1-----3^5--0--3^5^3---3^5-3/5\3----------1-------------| D-|-(5)-2-----------------0--0--------------------------4---2/4-2-------------| G-|----------------------------------------0--------------------2-------------| B-|-(0)---------0-2-3-------------------------------------0-------------------| E-|---------------------------------------------------------------------------| TAB marks: ()- ghost note ^ - hammer on/pull off b - bend / - slide up \ - slide down Don't strike the 3 parts all at once but upwards one string after the other. 0

искать в аптеке
список лекарств






О сайтеАккордыХит-парадПоискУроки ФорумыИщу песню
ПрограммыСвежачок-сПодпискаСтатьи
Яндекс.Метрика