Табулатура Metallica | Through The Never гитара табулатуры уроки тексты песен Metallica текст lyrics песня аккорды песни ноты нота электрогитара струна  
   А Б В Г Д Е Ж З И К Л М Н О П Р С Т У Ф Х Ч Ш Ы Э Ю Я       Разные песни
1-9 A B C D E F G H I J K L M N O P Q R S T U V W Y Z      Все исполнители in english

    



группа Metallica, Табулатура песни Through The Never

Работа в Европе для граждан РФ, Украины, СНГ

  • минимальная зарплата $500.
  • виза и контракт на полгода, возможно продление
  • проживание оплачивает работодатель
  • нужен только загранпаспорт
  • оформление 190 €
  • данное предложение - отличная возможность эмигрировать в Европу и закрепиться здесь навсегда.

  • Мы свяжемся с Вами по WhatsApp или Viber и ответим на любые вопросы.
    на нашем сайте можно почитать подробнее »

    Группа: Metallica - другие аккорды (225),   о группе (32 статей),   диски (11),   фотографии (49)
    Табулатура песни: Through The Never
    Просмотров: 2510




        
    
    
    #----------------------------------PLEASE NOTE---------------------------------#
    #This file is the author's own work and represents their interpretation of the #
    #song. You may only use this file for private study, scholarship, or research. #
    #------------------------------------------------------------------------------##
    
    Through the Never
    Metallica
    On the album "Metallica", (c)1991
    Transcribed by Leper.Messiah@NJackN.com
    (Transcribed from memory, be forgiving, I spent hours making this look 
     professional :P)
                               
                               Through The Never
                                 (Metallica)
                            Hetfield, Ulrich, Hammet
             
             16x          Riff A         3x  Fill 1          Riff A 3x            
    ||----------|--------|-----------------||---------------|         |----------|
    ||----------|--------|-----------------||---------------|         |----------|
    ||.--------.|--------|.---------------.||---------------|         |----------|
    ||.--------.|--------|.---------------.||---------------|         |----------|
    ||-----4----|-2-2---5|-----4-------3---||-----4-------5-|         |-2-2---5--|
    ||-0-2---2--|-0-0---3|-0-2---2-0-2---2-||-0-2---2-0-2-3-|         |-0-0---3--|
       PM.....             PM.............    PM.........
     
    Riff A 3x  Fill 1  Riff A 3x 
                                 |-------------------------|
                                 |-------------------------|
                                 |---------2-3-2-0---------|
                                 |---------2-3-2-0-3-2-0-3-|
                                 |-2-2-------------3-2-0-3-|
                                 |-0-0---------------------|
                                                   PM.....
     
    Rhy Fig 1
    |---------|---------|---------|---------|-----------|---------------------|
    |---------|---------|---------|---------|-----------|---------------------|
    |.--------|---------|---------|---------|---2----3--|-2-3-2-0------------.|
    |.--------|---------|---------|---------|---2----3--|---------3-2-0-2-3P2.|
    |---------|---------|---------|---------|-----------|---------------------|
    |-0-0-0-0-|-0-0-0-0-|-0-0-0-0-|-0-0-0-0-|-0----0----|---------------------|
      PM...................................  PM   PM                              
                                          3x
    |---------|---------|---------|---------|-----------|---------|---------|
    |---------|---------|---------|---------|-----------|---------|---------|
    |.--------|---------|---------|--------.|---2----3--|---------|---------|
    |.--------|---------|---------|--------.|---2----3--|---------|---------|
    |---------|---------|---------|---------|-----------|---------|---------|
    |-0-0-0-0-|-0-0-0-0-|-0-0-0-0-|-0-0-0-0-|-0----0----|-0-0-0-0-|-0-0-0-0-|
      PM...................................  PM   PM      PM...............
     
    |---------|---------|---------|---------|---------|---------|---------|
    |---------|---------|---------|---------|---------|---------|---------|
    |---------|---------|---------|---------|---------|---------|---------|
    |---------|---------|---------|---------|---------|---------|---------|
    |---------|---------|---------|---------|---------|---------|---------|
    |-0-0-0-0-|-0-0-0-0-|-3-3-3-3-|-3-3-3-3-|-3-3-3-3-|-3-3-3-3-|-2-2-2-2-|
      PM.................................................................
                                                   end Rhy Fig 1
    |---------|---------|---------|-----------|-----------------|
    |---------|---------|---------|-----------|-----------------|
    |---------|---------|---------|---2----3--|-2-3-2-0---------|
    |---------|---------|---------|---2----3--|---------3-2-0-3-|
    |---------|---------|---------|-----------|-----------------|
    |-2-2-2-2-|-2-2-2-2-|-2-2-2-2-|-0----0----|-----------------|
      PM.........................  PM   PM
     
     GTR I (Rhy Fig 2)                                         (end Rhy Fig 2)
    |-----------------|-----------------|-----------------|-------------------|
    |-----------------|-----------------|-----------------|-------------------|
    |-----------------|-----------------|-----------------|-------------------|
    |-----------------|-----------------|-----------------|-------------------|
    |-----4-------3---|-----4-------3---|-----4-------3---|-----4-------3-----|
    
    Узнай ВСЕ о своем друге в ВК или FB
    |-0-2---2-0-2---2-|-0-2---2-0-2---2-|-0-2---2-0-2---2-|-0-2---2-0-2---2---| | PM............. | ............... | ............... | ............... | | | | | | |GTR II(Rhy Fig 2)| | | (end Rhy Fig 2)| |-----------------|-----------------|-----------------|-------------------| |-----------------|-----------------|-----7-----------|-------------------| |-----------------|-----------------|--------6--5--4--|-------------------| |-----------------|-----------------|-----------------|-----4-------------| |-----4-------3---|-----4-------3---|-----------------|--------4--3--2----| |-0-2---2-0-2---2-|-0-2---2-0-2---2-|-----------------|-------------------| PM............. ............... ________________________ Rhy Fig 3 | 3x 3x Riff A 3x Fill 1 Riff A 3x |------------||----------|-----| |------------||----------|-----| |.----------.||.--------.|-----| |.----------.||.--------.|-----| |-2-4--4-----||-2-4--2-4-|-5---| |-0-2--2-2-2-||-0-2--0-2-|-3---| Rhy Fig 1 Rhy Fig 2 Rhy Fig 3 |-------------------------| |---------------| |-------------------------| |---------------| |---------2-3-2-0---------| |-2-3-2-0-------| |---------2-3-2-0-3-2-0-3-| |---------3-2-0-| |-2-2-------------3-2-0-3-| |---------------| |-0-0---------------------| |---------------| PM..... (solo) 14x 14x 3x 6x |-------------||---------|-------------||---------|------------|-----| |-------------||---------|-------------||---------|------------|-----| |-------------||.-------.|------------.||.-------.|.----------.|.---.| |-------------||.2-4-4-4.|------------.||.-------.|.----------.|.---.| |-4-2--2--2-2-||-0-2-2-2-|-4-2--2--2-2-||-5-7-7-7-|-2-4--4-----|-2-4-| |-2-0--0--0-0-||---------|-2-0--0--0-0-||-3-5-5-5-|-0-2--2-2-2-|-0-2-| Heavy PM... Heavy PM... PM.................. |---------|---------|---------|---------|---------|---------|---------| |---------|---------|---------|---------|---------|---------|---------| |---------|---------|---------|---------|---------|---------|---------| |---------|---------|---------|---------|---------|---------|---------| |---------|---------|---------|---------|---------|---------|---------| |-0-0-0-0-|-0-0-0-0-|-0-0-0-0-|-0-0-0-0-|-0-0-0-0-|-0-0-0-0-|-0-0-0-0-| PM................................................................. 12x 4x |---------|---------|----------|--------------------|----------|---------| |---------|---------|----------|--------------------|----------|---------| |---------|---------|.---------|-------------------.|----------|.-------.| |---------|---------|.---------|-------------------.|----------|.-------.| |---------|---------|-2------5-|-----------5--7P5---|-2-4--2-4-|-----3---| |-0-0-0-0-|-0-0-0-0-|-0--0-0-3-|-0-0-/6(6)--------6-|-0-2--0-2-|-0-2---2-| PM............... PM. PM. Rhy Fig 2 Rhy Fig 3 |---| Riff A 3x |-----| |---| |-----| |---| |-----| |---| |-----| |-5-| |-5-5-| |-3-| |-3-3-| IMMMMMMMMMMMMMMMMMMMMMMMMMM; : Jay Sharma : : Leper.Messiah@NjackN.com : : Leper.Messiah@Rushnet.com: HMMMMMMMMMMMMMMMMMMMMMMMMMM<

    искать в аптеке
    список лекарств






    О сайтеАккордыХит-парадПоискУроки ФорумыИщу песню
    ПрограммыСвежачок-сПодпискаСтатьи
    Яндекс.Метрика