Табулатура Metallica | The Wait гитара табулатуры уроки тексты песен Metallica текст lyrics песня аккорды песни ноты нота электрогитара струна  
   А Б В Г Д Е Ж З И К Л М Н О П Р С Т У Ф Х Ч Ш Ы Э Ю Я       Разные песни
1-9 A B C D E F G H I J K L M N O P Q R S T U V W Y Z      Все исполнители in english

    



группа Metallica, Табулатура песни The Wait

Группа: Metallica - другие аккорды (225),   о группе (32 статей),   диски (11),   фотографии (49)
Табулатура песни: The Wait
Просмотров: 2750




    


#----------------------------------PLEASE NOTE---------------------------------#
#This file is the author's own work and represents their interpretation of the #
#song. You may only use this file for private study, scholarship, or research. #
#------------------------------------------------------------------------------##
From alt.guitar.tab Wed Nov 24 10:32:51 1993
Subject: TAB: "The Wait" -- Mctallica
Message-ID: <1993Nov24.030908.5065@mnemosyne.cs.du.edu>
X-Disclaimer: Nyx is a public access Unix system run by the University
        of Denver for the Denver community.  The University has neither
        control over nor responsibility for the opinions of users.
Sender: usenet@mnemosyne.cs.du.edu (netnews admin account)
Organization: Nyx, Public Access Unix at U. of Denver Math/CS dept.
Date: Wed, 24 Nov 93 03:09:08 GMT
Lines: 126

Key:                   |              >            >>
o'. = dotted half     / = quarter    / = eighth   /  = 16th

Intro:
                                             

          |         |     >     >>  >     >>  >     >>  >     >>  >> >> >> >>
    o'.  /    o'.  /     /     /   /     /   /     /   /     /   /  /  /  /
-----------|----------|------------------------------------------------------|
-----------|----------|------------------------------------------------------|
-----------|----------|*--------------------------------------------------0-*|
---------3-|-------3--|*-2-----x---2-----x---2-----x---2-----x---------3----*| 
-----------|----------|--2-----x---2-----x---2-----x---2-----x------3--------|
<2>p0------|--0-------|--0-----x---2-----x---2-----x---2-----x---1-----------|
 ^\                                                 P.M. ^^^^^^^^^^
    \
      


Main:
    >>    >> >> >> >    >> >    >> >    >> >  >> >> >> >>    >> >> >> >> >
   /     /  /  /  /    /  /    /  /    /  /  /  /  /  /     /  /  /  /  /
------|--------------------------------------------------|------------------
------|--------------------------------------------------|------------------
------|*----------------------------------------------0--|------------------
---2--|*-2--x-----2----x--2----x--2----x--2--------3-----|--x--2--x-----2---
---2--|--2--x-----2----x--2----x--2----x--2-----3--------|--x--2--x-----2---
---0--|--0--x--3--0----x--0----x--0----x--0--1-----------|--x--0--x--3--0---
                                         P.M.^^^^^^^^^^^^


    >> >> >> >> >> >> >> >> >> >> >>
   /  /  /  /  /  /  /  /  /  /  /     
-------------------------------------|
-------------------------------------|     repeat several times.
------------------------------------*|
---x--2--x--2--x--2--3--3--3--3--3--*|
---x--2--x--2--x--2--3--3--3--3--3---|
---x--0--x--0--x--0--1--1--1--1--1---|
                 P.M.^^^^^^^^^^^^^



|Chorus (Gtr. 1) -- part 1:
|---------------------------------------------------------------------|
|---------------------------------------------------------------------|
|---2----------------4----------------5----------------10--------\----|
|---2----------------4----------------5----------------10--------\----|
|---0----------------2----------------3----------------8---------\----|
|---------------------------------------------------------------------|
|                                                                     |
|Chorus (Gtr. 2) -- part 1:                                           |
|---------------------------------------------------------------------|
|---------------------------------------------------------------------|
|---2----------------4----------------5-------------------------------|
|---2----------------4----------------5----------------3--------------|
|---0----0--0-----0--2----2--2--0--2--3----3--3--2--0--3--------------|
Узнай ВСЕ о своем друге в ВК или FB
|--------------3---------------------------------------1--------------| P.M.^^^^^^^^^^ P.M.^^^^^^^^^^ P.M.^^^^^^^^^^ |Gtr 1 -- part 2: |---------------------------------------------------------------------| |---------------------------------------------------------------------| |---2---------------4---------------5---------------------------------| |---2---------------4---------------5-----------------3---------------| |---0---------------2---------------3-----------------3---------------| |-----------------------------------------------------1---------------| | |Gtr. 2: |Both Gtrs -- part 3: |---------------------------------------------------------------------| |---------------------------------------------------------------------| |---2---------------4---------------5------------------10------\------| |---2---------------4---------------5------------------10------\------| |---0---------------2---------------3------------------8-------\------| |---------------------------------------------------------------------| Pre-solo: |--------------------------------------------------------------------------| |--------------------------------------------------------------------------| |*---10-\--9----------------------10-\--9------14-\-13--------10-\--9------| |*-----------------10-\--9-------------------------------------------------| |----8--\--7----------------------8--\--7------12-\-11--------8--\--7------| |------------------8--\--7-------------------------------------------------| _____________________________________ ________________________________ 1. \ / 2. \ -----------------------------------------|-----------------------------------| -----------------------------------------|-----------------------------------| ---10-\--9-------14-\-13-------17-\-16--*|--14-\-13-----17-\-16-----22-\-21--| ----------------------------------------*|-----------------------------------| ---8--\--7-------12-\-11-------15-\-14---|--12-\-11-----15-\-14-----20-\-19--| -----------------------------------------|-----------------------------------| Solo: 1.25 1.25 <-- bend up this much 1.25 1.25 ------------------------------------------------------------15-\-------- ---15^----15^------12-\----------------15^-----15^----------15-\-------- -------------------12-\------------------------------------------------- ------------------------------------------------------------------------ ------------------------------------------------------------------------ ------------------------------------------------------------------------ Still working on the second solo.... Play with lots of muting and downpicking throughout. Kill those strings! ;) -Legion -- _____________________________________________________________________________ | "I am of the opinion that anyone in politics can rise very quickly to the | | top if they are not weighed down by talent or integrity..." | :___________________________R. Chetwynd-Hayes_______________________________:

найти лекарство
список лекарств

Театральные костюмы на прокат на хэлувин. Прокат театральных костюмов на таганке .

kapussta.ru








О сайтеАккордыХит-парадПоискУроки ФорумыИщу песню
ПрограммыСвежачок-сПодпискаСтатьи
Яндекс.Метрика