Табулатура Metallica | The Small Hours гитара табулатуры уроки тексты песен Metallica текст lyrics песня аккорды песни ноты нота электрогитара струна  
   А Б В Г Д Е Ж З И К Л М Н О П Р С Т У Ф Х Ч Ш Ы Э Ю Я       Разные песни
1-9 A B C D E F G H I J K L M N O P Q R S T U V W Y Z      Все исполнители in english

    



группа Metallica, Табулатура песни The Small Hours

Группа: Metallica - другие аккорды (225),   о группе (32 статей),   диски (11),   фотографии (49)
Табулатура песни: The Small Hours
Просмотров: 2871




    


#----------------------------------PLEASE NOTE--------------------------------#
#This file is the author's own work and represents their interpretation of the#
#song. You may only use this file for private study, scholarship, or research.#
#-----------------------------------------------------------------------------#

Date: Fri, 3 Apr 1998 19:46:11 -0500


The Small Hours
---------------
   Tough timing listen to song

 INTRO:
 E-|---0|------0---------0-----|--|--------0-------0--------0-|--|
 B-|----|--6--------6---------6|--|---4--------4--------4-----|--|
 G-|-8--|8---8----8---8----8---|x2|-7---7----7---7----7---7---|x2|
 D-|----|----------------------|--|---------------------------|--|
 A-|----|----------------------|--|---------------------------|--|
 E-|----|----------------------|--|---------------------------|--|

     Main Riff
 E-|----------------------|--|---------|------------------------|
 B-|----------------------|--|---------|------------------------|
 G-|----------------------|--|---------|repeat-a-bunch-of-times-|
 D-|----------------------|x3|---------|------------------------|
 A-|-2-2--4/5\4/5--2-2--5-|--|-5-4--4-3|------------------------|
 E-|-0-0--2/3\2/3--0-0--3-|--|-3-2--2-1|------------------------|

     during verse play main riff 4 times then:
 E-|-----------------------|
 B-|-----------------------|
 G-|-----------------------|
 D-|-5---------3-----------|
 A-|-5---------3-----------|
 E-|-5---------3-----------|
     then main riff 2x

 E-|---------------------------------------|
 B-|---------------------------------------|
 G-|---------------------------------------|
 D-|---------------------------------------|
 A-|-0-0-0------0--3--------0-----0------3-|
 E-|-0-0-0---5-----------------5-------5-3-|


 E-|-------------------------------------------------------|
 B-|-------------------------------------------------------|
 G-|-----------------------------------------7------7----7-|
 D-|-----------------------------------------7------7----7-|
 A-|-0--0--0-------0--3-------0-----0--------5------5----5-|
 E-|-0--0--0----5----------------5-------5-----------------|

     Play intro with:
 E-|-------------------|
Узнай ВСЕ о своем друге в ВК или FB
B-|-------------------| G-|-------------------| D-|-1-----------1-1---| A-|-1-----------1-1---| E-|-1-----------1-1---| Rythem for the Solo E-|-----------------------------------------------------------| B-|-----------------------------------------------------------| G-|-----------------------------------------------------------| D-|-----------------------------------------------------------| A-|-------------------------------------------6------------8--| E-|-0---0-0-0----0-0-0----0-0-0---0-0-0---0-0-6-----0--0-0-8--| E-|-------------------------------------------------------------------| B-|-------------------------------------------------------------------| G-|-------------------------------------------------------------------| D-|-------------------------------------------------------------------| A-|-----------------------------------------------6-------------------| E-|-0---0-0-0----0-0-0----0-0-0-----0-0-0-----0-0-6-------0--6--5--3--| After the solo play this E-|-------------------------------------------------------------| B-|-------------------------------------------------------------| G-|-------------------------------------------------------------| D-|-------------------------------------------------------------| A-|----------------------------------------------6------------8-| E-|-0--0-0-0---0-0-0-----0-0-0-----0-0-0-----0-0-6-----0--0-0-8-| E-|----------------------------------------------------------| B-|----------------------------------------------------------| G-|----------------------------------------------------------| D-|----------------------------------------------------------| A-|----------------------------------------7-------------9---| E-|-0---0-0-0--0-0-0----0-0-0--0-0-0---0-0-7-----0---0-0-9---| E-|-----------------------------------------------------------| B-|-----------------------------------------------------------| G-|-----------------------------------------------------------| D-|-----------------------------------------------------------| A-|-----------------------------------------8------------10-| E-|-0---0-0-0--0-0-0----0-0-0---0-0-0---0-0-8------0---0-0-10-| Then end with intro --

лекарство в аптеке
список лекарств

Steamkey

steamkey

steamkey.com








О сайтеАккордыХит-парадПоискУроки ФорумыИщу песню
ПрограммыСвежачок-сПодпискаСтатьи
Яндекс.Метрика