Табулатура Metallica | The God That Failed Solo гитара табулатуры уроки тексты песен Metallica текст lyrics песня аккорды песни ноты нота электрогитара струна  
   А Б В Г Д Е Ж З И К Л М Н О П Р С Т У Ф Х Ч Ш Ы Э Ю Я       Разные песни
1-9 A B C D E F G H I J K L M N O P Q R S T U V W Y Z      Все исполнители in english

    



группа Metallica, Табулатура песни The God That Failed Solo

Работа в Европе для граждан РФ, Украины, СНГ

  • минимальная зарплата $500.
  • виза и контракт на полгода, возможно продление
  • проживание оплачивает работодатель
  • нужен только загранпаспорт
  • оформление 190 €
  • данное предложение - отличная возможность эмигрировать в Европу и закрепиться здесь навсегда.

  • Мы свяжемся с Вами по WhatsApp или Viber и ответим на любые вопросы.
    на нашем сайте можно почитать подробнее »

    Группа: Metallica - другие аккорды (225),   о группе (32 статей),   диски (11),   фотографии (49)
    Табулатура песни: The God That Failed Solo
    Просмотров: 2468




        
    
    
    #----------------------------------PLEASE NOTE--------------------------------#
    #This file is the author's own work and represents their interpretation of the#
    #song. You may only use this file for private study, scholarship, or research.#
    #-----------------------------------------------------------------------------#
    
    Subject: m/metallica/the_god_that_failed_solo.tab
    Date: Sun, 24 May 1998 16:50:51 PDT
    
    Band: Metallica
    Song: The God That Failed
    Subject: Solo
    Transcribed by: Smith
    Email: ktulu54@hotmail.com
    
    ^= Bend
    ~= Shake
    H= Hammer On
    P= Pull Off
    /= Slide Up
    \= Slide Down
    T= Tremolo Picking
    X= Muffled String
    
    Here's the Solo:
    e---------------------------
    B-----12--------------------
    G-14~~---14-12-11-12-11-----
    D----------------------14---
    A---------------------------
    E---------------------------
    
    e---------------------------
    B---------------------------
    G-11h12p11\7---7---7-7-7/9\--
    D---------------9-----------
    A---------------------------
    E---------------------------
    
        
    e-0--0--0--0--0--0--0--0--0--0
    B-5--7--8-10-12-10--8--7--8--7
    G-----------------------------
    D-----------------------------
    A-----------------------------
    E-----------------------------
                                                          T         T
    e-0--0--0--0--0--0--10/12\1/12-
    B-5--4--5--7--8-10--10/12\1/12-
    G-----------------------------
    D-----------------------------
    A-----------------------------
    E-----------------------------
    
    e-----------------------------
    B-----------------------------
    G-----12-14-14^p12---14^p12----
    D-7/14------------14-------14-
    A-----------------------------
    E-----------------------------
    
    e-----------------------------
    B----15^~~~-------------------
    G-12-14^~~~--9/11/12/14/16\14\12
    D-----------------------------
    A------------7/9/-10/12/14\12\9
    E-----------------------------
    
    e----------------------------
    B----------------------------
    G-/16-X-X-14--X-X-12-11-9--9--
    D----------------------------
    A-/14-X-X-12--X-X-10--9-7-----
    E----------------------------
    
    e-----------------------------
    B-------------14h15p14--14-15-
    G--7-6----6-7---------16------
    D------9----------------------
    A-----------------------------
    E-----------------------------
    
    e-----14h15p14-----14-15-17---
    B--17----------17-------------
    G-----------------------------
    D-----------------------------
    A-----------------------------
    E-----------------------------
    
    e--19---19-19-19-19-19---19-19
    B-----------------------------
    G-----------------------------
    D-----------------------------
    A-----------------------------
    E-----------------------------
    
    e-19-19---19-19-19-19-19---19-
    B-----------------------------
    G-----------------------------
    D-----------------------------
    A-----------------------------
    E-----------------------------
    
    e-19-19-19--19-19p17p15-19--
    B---------------------------
    G---------------------------
    D---------------------------
    A---------------------------
    E---------------------------
    
    e--19p17p15---15h17-19p17p15h17
    B----------17-----------------
    G-----------------------------
    
    Узнай ВСЕ о своем друге в ВК или FB
    D----------------------------- A----------------------------- E----------------------------- e----15h17-19-19p17p15----- B-17------------------17--- G-------------------------- D-------------------------- A-------------------------- E-------------------------- e-19p17p15---19p17p15------ B---------17---------17--- G------------------------- D-------------------------- A-------------------------- E-------------------------- e-19p17p15---15--19p17p15\14-- B---------17----------------- G---------------------------- D---------------------------- A---------------------------- E---------------------------- e--17p15p14\12--15p14p12\10--- B---------------------------- G---------------------------- D---------------------------- A---------------------------- E---------------------------- e--14p12p10\9--12p10p9\7--7---- B----------------------8---8-- G----------------------------- D----------------------------- A----------------------------- E----------------------------- e----------------------------- B----------------------------- G----------------------------- D-4h5p4----------4h5p4--------- A------7-5-4\2--------7-5-4\2-- E-------------5-3------------5 e----22^--22^22^-22~~-19-22-- B--------------------------- G--------------------------- D--------------------------- A--------------------------- E-3------------------------- e-19h22p19--19-19-19-19-19-19- B---------22-22-22^22^22^-22^22^ G----------------------------- D----------------------------- A----------------------------- E----------------------------- e-19--22p19--19-22p19-22p19---- B----------22--------------22- G----------------------------- D----------------------------- A----------------------------- E----------------------------- e-19-22p19-22p19--19-22p19----- B---------------22--------22-- G----------------------------- D----------------------------- A----------------------------- E----------------------------- e-19-22p19-22p19-19----------- B------------------22-22^p19-- G----------------------------- D----------------------------- A----------------------------- E----------------------------- e----------------------------- B-22^--22p19------------------ G-----------21-19--19-21^-21^- D----------------21----------- A----------------------------- E----------------------------- e----------------------------- B----------------------------- G-21^-21^-21^-21^-21^-21^-21^-21^ D----------------------------- A----------------------------- E----------------------------- e----------------------------- B----------------------------- G--19------------------------- D-----21~~~~~~~~~~~~~~~~~~~~~~ A----------------------------- E----------------------------- There it is. Comments? Email Me: ktulu54@hotmail.com

    искать в аптеке
    список лекарств

    Здесь

    Йога для каждого, Будь здоровым и красивым. Измени свою жизнь

    niketan108.com








    О сайтеАккордыХит-парадПоискУроки ФорумыИщу песню
    ПрограммыСвежачок-сПодпискаСтатьи
    Яндекс.Метрика