Табулатура Metallica | So What гитара табулатуры уроки тексты песен Metallica текст lyrics песня аккорды песни ноты нота электрогитара струна  
   А Б В Г Д Е Ж З И К Л М Н О П Р С Т У Ф Х Ч Ш Ы Э Ю Я       Разные песни
1-9 A B C D E F G H I J K L M N O P Q R S T U V W Y Z      Все исполнители in english

    



группа Metallica, Табулатура песни So What

Группа: Metallica - другие аккорды (225),   о группе (32 статей),   диски (11),   фотографии (49)
Табулатура песни: So What
Просмотров: 3363




    


#----------------------------------PLEASE NOTE---------------------------------#
#This file is the author's own work and represents their interpretation of the #
#song. You may only use this file for private study, scholarship, or research. #
#------------------------------------------------------------------------------##
      

                               -- Metallica --

                              " ** So What ** "

                              Transcription  by
                                Rafael Dylong

  So fucking
     what!      Gtr1
||------------||-----------|-----------|---------|-----------|
||------------||-----------|-----------|---------|-----------|
||------------||-----------|-----------|---------|-----------|
||------------||-5\7-7-7-7-|-5\7-7-7-7-|-5-7-5-7-|-5\7-7-7-7-|
||------------||-5\7-7-7-7-|-5\7-7-7-7-|-5-7-5-7-|-5\7-7-7-7-|
||------------||-3\5-5-5-5-|-3\5-5-5-5-|-3-5-3-5-|-3\5-5-5-5-|

 Gtr1&2
|-----------|-----------|---------|-----------|
|-----------|-----------|---------|-----------|
|-----------|-----------|---------|-----------|
|-5\7-7-7-7-|-5\7-7-7-7-|-5-7-5-7-|-5\7-7-7-7-|
|-5\7-7-7-7-|-5\7-7-7-7-|-5-7-5-7-|-5\7-7-7-7-|
|-3\5-5-5-5-|-3\5-5-5-5-|-3-5-3-5-|-3\5-5-5-5-|


|----------|----------|----------|----------|           \
|----------|----------|----------|----------|            \
|-5\7777777|-77777777-|-77777777-|-77777777-|            |
|-5\7777777|-77777777-|-77777777-|-77777777-|            |
|-3\5555555|-55555555-|-55555555-|-55555555-|            |
|----------|----------|----------|----------|            |
                                                         |
                                                         |
|-----------|-----------|---------|-----------|          |
|-----------|-----------|---------|-----------|          |
|-----------|-----------|---------|-----------|          |
|-5\7-7-7-7-|-5\7-7-7-7-|-5-7-5-7-|-5\7-7-7-7-|          |
|-5\7-7-7-7-|-5\7-7-7-7-|-5-7-5-7-|-5\7-7-7-7-|          |
|-3\5-5-5-5-|-3\5-5-5-5-|-3-5-3-5-|-3\5-5-5-5-|          |
                                                         |
                                                         |
|----------|----------|----------|----------|            |
|----------|----------|----------|----------|            |
|-5\7777777|-77777777-|-77777777-|-77777777-|            |
|-5\7777777|-77777777-|-77777777-|-77777777-|            |
|-3\5555555|-55555555-|-55555555-|-55555555-|            |
|----------|----------|----------|----------|            \    3 times
                                                          \
                                                           >  1&2&3 Verse
|-----------|-----------|---------|-----------|           /
|-----------|-----------|---------|-----------|          /
|-----------|-----------|---------|-----------|          |
|-5\7-7-7-7-|-5\7-7-7-7-|-5-7-5-7-|-5\7-7-7-7-|          |
|-5\7-7-7-7-|-5\7-7-7-7-|-5-7-5-7-|-5\7-7-7-7-|          |
|-3\5-5-5-5-|-3\5-5-5-5-|-3-5-3-5-|-3\5-5-5-5-|          |
                                                         |
 Gtr1                                                    |
|----------|----------|-----------|-----------|          |
|----------|----------|-----------|-----------|          |
|----------|-----2----|-----------|-----------|          |
|-----2----|---2---2--|-5\7-7-7-7-|-5\7-7-7-7-|          |
|---2---2--|-1--------|-5\7-7-7-7-|-5\7-7-7-7-|          |
|-1--------|----------|-3\5-5-5-5-|-3\5-5-5-5-|          |
|          |          |           |           |          |
|Gtr2      |          |           |           |          |
|----------|-6--------|-----------|-----------|          |
|-----6----|---6------|-----------|-----------|          |
|---5---5--|-----3----|-----------|-----------|          |
|-3--------|-------3--|-----------|-----------|          |
|----------|----------|-----------|-----------|          |
|----------|----------|-----------|-----------|          |
                                                         |
                                                         |
 Gtr1                                                    |
|----------|----------|-----------|-----------|          |
|----------|----------|-----------|-----------|          |
|----------|-----2----|-----------|-----------|          |
|-----2----|---2---2--|-5\7-7-7-7-|-5\7-7-7-7-|          |
|---2---2--|-1--------|-5\7-7-7-7-|-5\7-7-7-7-|          |
|-1--------|----------|-3\5-5-5-5-|-3\5-5-5-5-|          |
|          |          |           |           |          |
|Gtr2      |          |           |           |          |
|----------|-6--------|-----------|-----------|          |
|-----6----|---6------|-----------|-----------|          |
|---5---5--|-----3----|-----------|-----------|          |
|-3--------|-------3--|-----------|-----------|          |
|----------|----------|-----------|-----------|          |
|----------|----------|-----------|-----------|          |
                                                         |
|---------|-----------|                                  |
|---------|-----------|                                  |
|---------|-----------|                                  |
|-5-7-5-7-|-5\7-7-7-7-|                                  |
|-5-7-5-7-|-5\7-7-7-7-|                                  /
|-3-5-3-5-|-3\5-5-5-5-|                                 /

 Gtr1
|----------|----------|----------|----------|           \
|----------|----------|----------|----------|            \
|-5\7777777|-77777777-|-77777777-|-77777777-|            |
|-5\7777777|-77777777-|-77777777-|-77777777-|            |
|-3\5555555|-55555555-|-55555555-|-55555555-|            |
|----------|----------|----------|----------|            |
                                                         |
                                                         |
|-----------|-----------|---------|-----------|          |
|-----------|-----------|---------|-----------|          |
|-----------|-----------|---------|-----------|          |
|-5\7-7-7-7-|-5\7-7-7-7-|-5-7-5-7-|-5\7-7-7-7-|          |
|-5\7-7-7-7-|-5\7-7-7-7-|-5-7-5-7-|-5\7-7-7-7-|          |
|-3\5-5-5-5-|-3\5-5-5-5-|-3-5-3-5-|-3\5-5-5-5-|          |
                                                         |
                                                         |
|----------|----------|----------|----------|            |
|----------|----------|----------|----------|            |
|-5\7777777|-77777777-|-77777777-|-77777777-|            |
|-5\7777777|-77777777-|-77777777-|-77777777-|            |    JAMES H.
|-3\5555555|-55555555-|-55555555-|-55555555-|            \     playes.
|----------|----------|----------|----------|             \   rhytm gtr.
                                                           >     &&&
                                                          /   MR.HAMMETT
|-----------|-----------|---------|-----------|          /       the
|-----------|-----------|---------|-----------|          |      solo
|-----------|-----------|---------|-----------|          |
|-5\7-7-7-7-|-5\7-7-7-7-|-5-7-5-7-|-5\7-7-7-7-|          |
|-5\7-7-7-7-|-5\7-7-7-7-|-5-7-5-7-|-5\7-7-7-7-|          |
|-3\5-5-5-5-|-3\5-5-5-5-|-3-5-3-5-|-3\5-5-5-5-|          |
                                                         |
                                                         |
|----------|----------|-----------|-----------|          |
|----------|----------|-----------|-----------|          |
|----------|-----2----|-----------|-----------|          |
|-----2----|---2---2--|-5\7-7-7-7-|-5\7-7-7-7-|          |
|---2---2--|-1--------|-5\7-7-7-7-|-5\7-7-7-7-|          |
|-1--------|----------|-3\5-5-5-5-|-3\5-5-5-5-|          |
                                                         |
                                                         |
|----------|----------|-----------|-----------|          |
|----------|----------|-----------|-----------|          |
|----------|-----2----|-----------|-----------|          |
|-----2----|---2---2--|-5\7-7-7-7-|-5\7-7-7-7-|          |
Узнай ВСЕ о своем друге в ВК или FB
|---2---2--|-1--------|-5\7-7-7-7-|-5\7-7-7-7-| | |-1--------|----------|-3\5-5-5-5-|-3\5-5-5-5-| | | |---------|-----------| | |---------|-----------| | |---------|-----------| | |-5-7-5-7-|-5\7-7-7-7-| | |-5-7-5-7-|-5\7-7-7-7-| / |-3-5-3-5-|-3\5-5-5-5-| / Gtr1&2 \ |----------|----------|----------|----------| \ |----------|----------|----------|----------| | |-5\7777777|-77777777-|-77777777-|-77777777-| | |-5\7777777|-77777777-|-77777777-|-77777777-| | |-3\5555555|-55555555-|-55555555-|-55555555-| | |----------|----------|----------|----------| | | | |-----------|-----------|---------|-----------| | |-----------|-----------|---------|-----------| | |-----------|-----------|---------|-----------| | |-5\7-7-7-7-|-5\7-7-7-7-|-5-7-5-7-|-5\7-7-7-7-| | |-5\7-7-7-7-|-5\7-7-7-7-|-5-7-5-7-|-5\7-7-7-7-| | |-3\5-5-5-5-|-3\5-5-5-5-|-3-5-3-5-|-3\5-5-5-5-| | | | |----------|----------|----------|----------| | |----------|----------|----------|----------| | |-5\7777777|-77777777-|-77777777-|-77777777-| | |-5\7777777|-77777777-|-77777777-|-77777777-| | |-3\5555555|-55555555-|-55555555-|-55555555-| | |----------|----------|----------|----------| \ \ > 4 Verse |-----------|-----------|---------|-----------| / |-----------|-----------|---------|-----------| / |-----------|-----------|---------|-----------| | |-5\7-7-7-7-|-5\7-7-7-7-|-5-7-5-7-|-5\7-7-7-7-| | |-5\7-7-7-7-|-5\7-7-7-7-|-5-7-5-7-|-5\7-7-7-7-| | |-3\5-5-5-5-|-3\5-5-5-5-|-3-5-3-5-|-3\5-5-5-5-| | | Gtr1 | |----------|----------|-----------|-----------| | |----------|----------|-----------|-----------| | |----------|-----2----|-----------|-----------| | |-----2----|---2---2--|-5\7-7-7-7-|-5\7-7-7-7-| | |---2---2--|-1--------|-5\7-7-7-7-|-5\7-7-7-7-| | |-1--------|----------|-3\5-5-5-5-|-3\5-5-5-5-| | | | | | | | |Gtr2 | | | | | |----------|-6--------|-----------|-----------| | |-----6----|---6------|-----------|-----------| | |---5---5--|-----3----|-----------|-----------| | |-3--------|-------3--|-----------|-----------| | |----------|----------|-----------|-----------| | |----------|----------|-----------|-----------| | | | Gtr1 | |----------|----------|-----------|-----------| | |----------|----------|-----------|-----------| | |----------|-----2----|-----------|-----------| | |-----2----|---2---2--|-5\7-7-7-7-|-5\7-7-7-7-| | |---2---2--|-1--------|-5\7-7-7-7-|-5\7-7-7-7-| | |-1--------|----------|-3\5-5-5-5-|-3\5-5-5-5-| | | | | | | | |Gtr2 | | | | | |----------|-6--------|-----------|-----------| | |-----6----|---6------|-----------|-----------| | |---5---5--|-----3----|-----------|-----------| | |-3--------|-------3--|-----------|-----------| | |----------|----------|-----------|-----------| / |----------|----------|-----------|-----------| / So fucking what! Yeah! |---------|---------|-----------------|----|| |---------|---------|-----------------|----|| |---------|---------|-----------------|----|| |-5-7-5-7-|-5-7-5-7-|-----------------|-7\-|| |-5-7-5-7-|-5-7-5-7-|-----------------|-7\-|| |-3-5-3-5-|-3-5-3-5-|-----------------|-5\-||. So fucking what! 1/Well I've been to Hastings, and I've been to Brighton. I've been to Eastport too. So what. So what. And I've been here, I've been there. I've been everying fucking where. So what. So what. So what, so what, you boring little cunt. Who cares. Who cares what you do. Yeah Who cares, Who cares about you, you, you, you, you. 2/Well I've fucked a queen. I've fucked fucked. I've even sucked an old man's cock. So what. So what. And I've fucked a sheep. I've fucked a goat. I rammed my cock right down his throat. So what. So what. So what, so what, you boring little fuck. Who cares. Who cares what you do. And who cares, Who cares about you, you, you, you, you. 3/And I've drunk that, I've drunk this. I've spewed up on a pint of piss. So what. So what. I've had scank, I've have speed. I've jacked up until I bleed. So what. So what. So what, so what, you boring little cunt. Who cares. Who cares what you do. Yeah who cares, Who cares about you, you, you, you, you. 4/I've had crabs, I've had lice, I've had the clap and that ain't nice. So what. So what. I've fucked this, I've fucked that. I've even fucked a school girl's twat. So what. So what. So what, so what you boring little fuck. Who cares. Who cares what you do. And who cares, Who cares about you, you, you, you, you, you. So fucking what! Yeah! lyrics from http://ezinfo.ucs.indiana.edu/~lwagers/metallica/so_what

лекарство в аптеке
список лекарств






О сайтеАккордыХит-парадПоискУроки ФорумыИщу песню
ПрограммыСвежачок-сПодпискаСтатьи
Яндекс.Метрика