Табулатура Metallica | Sad But True гитара табулатуры уроки тексты песен Metallica текст lyrics песня аккорды песни ноты нота электрогитара струна  
   А Б В Г Д Е Ж З И К Л М Н О П Р С Т У Ф Х Ч Ш Ы Э Ю Я       Разные песни
1-9 A B C D E F G H I J K L M N O P Q R S T U V W Y Z      Все исполнители in english

    



группа Metallica, Табулатура песни Sad But True

Работа в Европе для граждан РФ, Украины, СНГ

  • минимальная зарплата $500.
  • виза и контракт на полгода, возможно продление
  • проживание оплачивает работодатель
  • нужен только загранпаспорт
  • оформление 190 €
  • данное предложение - отличная возможность эмигрировать в Европу и закрепиться здесь навсегда.

  • Мы свяжемся с Вами по WhatsApp или Viber и ответим на любые вопросы.
    на нашем сайте можно почитать подробнее »

    Группа: Metallica - другие аккорды (225),   о группе (32 статей),   диски (11),   фотографии (49)
    Табулатура песни: Sad But True
    Просмотров: 5311




        
    
    
    #----------------------------------PLEASE NOTE---------------------------------#
    #This file is the author's own work and represents their interpretation of the #
    #song. You may only use this file for private study, scholarship, or research. #
    #------------------------------------------------------------------------------##
            with SMTP id ; Thu, 19 Aug 1993 14:03:16 -0700
            id AA03958 (5.65c/FORTH-ICS-3.0-MHS-7.0); Thu, 19 Aug 1993 19:09:54 +0300
    Message-Id: <9308191606.AA23487@icaros.ntua.gr>
    Subject: SadButTrue.tab by Metallica
    To: jamesb@animal-farm.nevada.edu
    Date: Thu, 19 Aug 1993 19:06:49 +0300 (EET DST)
    X-Mailer: ELM [version 2.4 PL21]
    Mime-Version: 1.0
    Content-Type: text/plain; charset=US-ASCII
    Content-Transfer-Encoding: 7bit
    Content-Length: 22135     
    
    
                       SAD BUT TRUE - METALLICA
               Copyright Cherry Lane Music Company, Inc.
                      
                      Tabbed by Vassilis Tzerpos
    
    Key:
    s = slide                      p = pull-off
    __3__ = Triplets               h = hammer-on
    ^ = bend                       r = release bend
    x = dumped string              % = repeat last measure
    / = slide up to the note indicated from a few frets below
    \ = slide back a few frets from the note indicated 
    * = slide to the above or below indicated note from as many frets below 
    as the number of stars
    
    Tune guitar one whole step down.
    
    --------------------------------|--------------------------------|
    --------------------------------|--------------------------------|
    2-------------------2---2---2---|3-----------------------3-------|
    2-------------------2---2---2---|3-----------------------3-------|
    0-------------------0---0---0---|1-----------------------1-------|
    --------------------------------|--------------------------------|
    
    --------------------------------|--------------------------------|
    --------------------------------|--------------------------------|
    2-------------------------------|--------------------------------|
    2------------------/7---6---5---|3-5-3-5-3-5-353535353535--------|
    0-------------------------------|------------------------x\------|
    --------------------------------|--------------------------------|
    
    --------------------------------|--------------------------------|
    --------------------------------|--------------------------------|
    2-------------------2---2---2---|3-----------------------3-------|
    2-------------------2---2---2---|3-----------------------3-------|
    0-------------------0---0---0---|1-----------------------1-------|
    --------------------------------|--------------------------------|
    
    --------------------------------|----         -------------------|
    --------------------------------|----         -------------------|
    2-------------------------------|5---         -------------------|
    2------------------/7---6---5---|3---         -------------------|
    0-------------------------------|----         -------x---x-x-x-x-|
    --------------------------------|----         -------------------|
    
    --------------------------------|   |   |--------------------------------|
    --------------------------------|   |   |--------------------------------|
    --------------------------------| % | % |--------------------------------| 4%
    --------------------------------|   |   |--------------------------------|
    2-----------2---2---5p0-1p0-----|   |   |2-----------2---2---5p0-5-5-----|
    0-----------0---0-----------3p0-|   |   |0-----------0---0---------------|
    
    --------------------------------|--------------------------------|
    --------------------------------|--------------------------------|
    --------------------------------|--------------------------------|
    --------------------------------|--------------------------------|
    --------------------5p0-5-5-----|(5)^----r-----------x---x-x-x-x-|
    --------------------------------|--------------------------------|
    
    --------------------------------|--------------------------------|
    --------------------------------|--------------------------------|
    --------------------------------|--------------------------------|
    --------------------------------|--------------------------------|
    2-----------2---2---5p0-1p0-----|2-----------2---2---5p0-1p0-----|
    0-----------0---0-----------3p0-|0-----------0---0-----------3p0-|
    
    All these lyrics are played over the following tablature line.
    
    Verse 1:
    Hey,            I'm your life.   I'm the one who takes you there.
    Hey,            I'm your life.   I'm the one who cares.
    They,           they betray.     I'm your only true friend now.
    They,           they'll betray.  I'm forever there.
    
    Verse 2:
    You,            you're my mask.  You're my cover, my shelter.
    You,            you're my mask.  You're the one who's blamed.
    Do,             do my work.      Do my dirty work, scapegoat.
    Do,             do my deeds,     for you're the one who's shamed.
    
    Verse 3:
    Hate,           I'm your hate.   I'm your hate when you want love.
    Pay,            pay the price.   Pay, for nothing's fair.
    Hey,            I'm your life.   I'm the one who took you there.
    Hey,            I'm your life.   And I no longer care.
    
    --------------------------------|--------------------------------|
    --------------------------------|--------------------------------|
    --------------------------------|--------------------------------|
    ------------7-------------------|------------3-------------------|
    ------------5-------------------|------------1-------------------|
    0---0---0-0-----0---0-------0-0-|0---0---0-------0---0-------0-0-|
    
    
            I'm your dream, make you real. I'm your eyes when you must
            I'm your dream, mind astray. I'm your eyes when you're a-
    --------------------------------|--------------------------------|
    --------------------------------|--------------------------------|
    --------------------------------|--------------------------------|
    --------3-3-0---3---2-----------|--------3-3-0-------------------|
    --------3-3-0---3---2-----------|--------3-3-0-------7---7---7-7-|
    0---0-------------------0---0-0-|0---0-----------0---5---5---5-5-|
    
    steal I'm your pain when you can't feel         Sad but true
    way I'm your pain while you repay You know it's sad but true.
    --------------------------------|--------------------------------|
    --------------------------------|--------------------------------|
    --------------------------------|--------___3___-----------------|
    --------------------------------|--------5--5--5-5---------------|
    7---7---8-8-5---7---5---5---5-5-|5---5---3--3--3-3-------3-3-----|
    5---5---6-6-3---5---3---3---3-3-|3---3---------------0---1-1-0---|
    
    _____________________
    | 1.                           Sad but true.
    --------------------------------|   |   |--------------------------------|
    --------------------------------|   |   |--------------------------------|
    --------------------------------| % | % |--------------------------------|
    --------------------------------|   |   |--------------------------------|
    2-----------2---2---5p0-1p0-----|   |   |2-----------2---2---5p0-5-5-----|
    0-----------0---0-----------3p0-|   |   |0-----------0---0---------------|
    
    --------------------------------|--------------------------------|
    --------------------------------|--------------------------------|
    --------------------------------|--------------------------------|
    --------------------------------|--------------------------------|
    2-----------2---2---5p0-1p0-----|2-----------2---2---5p0-5-5-----|
    0-----------0---0-----------3p0-|0-----------0---0---------------|
    
    --------------------------------|
    --------------------------------| 
    --------------------------------| Go back and play verse 2.
    --------------------------------|
    (5)-----------------x---x-x-x-x-|
    --------------------------------|
    
    _____________________
    | 2.                        Sad but true.
    --------------------------------|   |--------------------------------|
    --------------------------------|   |--------------------------------|
    --------------------------------| % |--------------------------------|
    --------------------------------|   |--------------------------------|
    2-----------2---2---5p0-1p0-----|   |2-----------2---2-------0h1p0---|
    0-----------0---0-----------3p0-|   |0-----------0---0---0-3-------3-|
    
    --------------------------------|--------------------------------|
    --------------------------------|--------------------------------|
    --------------------------------|--------------------------------|
    ---/7---6---5---2---------------|---/7---6---5---3---------------|
    --------------------------------|--------------------------------|
    --------------------------------|--------------------------------|
                                    |                                |
    --------------------------------|--------------------------------|
    --------------------------------|--------------------------------|
    --------------------------------|--------------------------------|
    2-------------------2---2---2---|3-----------------------3-------|
    0-------------------0---0---0---|1-----------------------1-------|
    --------------------------------|--------------------------------|
    
    --------------------------------|--------------------------------|
    --------------------------------|--------------------5---4---3---|
    --------------------------------|--------------------------------|
    ---/7---6---5---2---------------|---/7---6---5---3---------------|
    --------------------------------|--------------------------------|
    --------------------------------|--------------------------------|
                                    |                                |
    --------------------------------|--------------------------------|
    --------------------------------|--------------------------------|
    --------------------------------|-------------------/7---6---5---|
    2-------------------2---2---2---|3-------------------------------|
    0-------------------0---0---0---|1-------------------------------|
    --------------------------------|--------------------------------|
    
    --------------------------------|--------------------------------|
    --------------------5---4---3---|--------------------------------|
    2-------------------------------|3-------------------------------|
    --------------------------------|--------------------2-3-5-3-5-3-|
    --------------------------------|--------------------------------|
    --------------------------------|--------------------------------|
                                    |                                |
    --------------------------------|--------------------------------|
    --------------------------------|--------------------------------|
    --------------------------------|--------------------------------|
    2------------------/7---6---5---|3-------------------2-3-5-3-5-3-|
    --------0-----------------------|--------1-----------------------|
    --------------------------------|--------------------------------|
    
    --------------------------------|----            ----------------|
    --------------------------------|----            ------------3-s-|
    2-------------------------------|----            ------------5-s-|
    --------------------2-3-5-3-5-2-|3---            ----------------|
    --------------------------------|----            --Solo 1--------|
    --------------------------------|----            ----------------|
                                    |                                |
    --------------------------------|----            ----------------|
    --------------------------------|----            ----------------|
    --------------------------------|----            ----------------|
    
    Узнай ВСЕ о своем друге в ВК или FB
    2-------------------2-3-5-3-5-2-|3--- ----------------| --------0-----------------------|---- ----x---x-x-x-x-| --------------------------------|---- ----------------| For the backing rhythm figure of solo 1 see end of transcription ----------------------------------------------------------------| 12----------------------------------------------12--12--12------| 11----------------------------------------------12--12--12------| --------------------------------14\-----12--14------------------| ----------------------------------------------------------------| ----------------------------------------------------------------| ----------------------------------------------------------------| ----------------12----------------------------------------------| ----------------12----------------------------------------------| 14------------------14--12------14-12-----------\-------12--14--| ----------------------------14--**------------------14----------| ----------------------------------------------------------------| ----------------------------------------------------------------| 12--------------------------------------------------------------| 12------------------------------9p7p6---------------------------| ----14--12------14----------------------9---7---9-----------\---| ------------14--**------------------------------**--------------| ----------------------------------------------------------------| ----------------------------------------------------------------| ----------------------------------------------------------------| 4-h-5p4-----4---------------------------------------------------| --------7-------7---5---4-----------------------9---s---5---s---| ----------------------------5---7-------------------------------| --------------------------------**------------------------------| ---------- -- -- -- ____3___--- -------- -- ------ -- --------------------| ----12--15p12 15p12 ---12 12-15p12----12h15p12--12h15p12------------------| 14^------- -- -- -- 14^-- ----- --14^--- -- --14-- -- --1412--------------| ---------- -- -- -- ----- ----- -------- -- ------ -- --------14--14------| ---------- -- -- -- ----- ----- -------- -- ------ -- --------------------| ---------- -- -- -- ----- ----- -------- -- ------ -- --------------------| ----------------------------------------------------------------| --------12------------------------------------------------------| --------12------14--12------------------------------------------| 12-h14------14----------14--12----------------------------------| --------------------------------14--12-s10--12--10--------------| ----------------------------------------------------------------| ----------------------------------------------------------------| 14^-r---14^-r-------------------14^-r-----------12--------------| 14^-r---14^-r---14^r12--12--14--14^-r---12------12----------12--| ----------------------14--------------------14----------14------| ----------------------------------------------------------------| ----------------------------------------------------------------| ----------------------------------------------------------------| 14^-r---12--14^-r---12--14^-r---12--14^-r-----------------------| 14^-r---12--14^-r---12--14^-r---12--14^-r---12--14^-------------| ------------------------------------------------------------12--| ----------------------------------------------------------------| ----------------------------------------------------------------| ________6________ ________6________ _________6________ ________6________| ----------------- ----------------- ------------------ -----------------| ----------------- ----------------- -------------12-12 13-12-13-15-15-15| ----------------- ---------12----12 14-12-14-14^------ -----------------| ---------12----12 14-12-14----14--- ------------------ -----------------| 14-12-14----14--- ----------------- ------------------ -----------------| ----------------- ----------------- ------------------ -----------------| __________6_________ _______6_______ 12h15p12--12--12 12 15p12 12 12 12 12 12-15p12 -- --------- --------------| -- -- --15------ -- ----- -- -- -- -- -------- 15p13--13-15p13----13--15--| -- -- ---------- -- ----- -- -- -- -- -------- -- --14----- --14----------| -- -- ---------- -- ----- -- -- -- -- -------- -- --------- --------------| -- -- ---------- -- ----- -- -- -- -- -------- -- --------- --------------| -- -- ---------- -- ----- -- -- -- -- -------- -- --------- --------------| 15------15------------------------------r-----------------------| 15^-----15^-----------------------------r-----------------------| ----------------------------------------------------------------| ----------------------------------------------------------------| ----------------------------------------------------------------| ----------------------------------------------------------------| At this point play Chorus once and go on with the second solo: ----------------------------------------------------------------| ----------------------------------------------------------------| ----------------------------------------------------------------| 2-------2-p-0---2-------2-p-0---2-------------------------------| ----------------------------------------------------------------| ----------------------------------------------------------------| | ----------------------------------------------------------------| ----------------------------------------------------------------| ----------------------------------------------------------------| ----------------------------------------------------------------| 2-----------------------2-------2-------5-p-0---1-p-0-----------| 0-----------------------0-------0-----------------------3-p-0---| -------0------------0-------------------------------------------| -----------3^-----------3---0-----------------------------------| 2^------------------------------2^rp0---------------------------| ----------------------------------------2-----------------------| ----------------------------------------------------------------| ----------------------------------------------------------------| | ----------------------------------------------------------------| ----------------------------------------------------------------| ----------------------------------------------------------------| ----------------------------------------------------------------| 2-----------------------2-------2---------------0-h-1-p-0-------| 0-----------------------0-------0-------0---3---------------3---| ----------------------------------------------------------------| ----------------------------------------------------------------| 4^------4^------4^------4^------4^--------------0---------------| -----Semi - harmonics-------------------------------2-----------| ----------------------------------------------------------------| ----------------------------------------------------------------| | ----------------------------------------------------------------| ----------------------------------------------------------------| ----------------------------------------------------------------| ----------------------------------------------------------------| 2-----------------------2-------2-------5-p-0---1-p-0-----------| 0-----------------------0-------0-----------------------3-p-0---| ----------------------------------------------------------------| --------12--12--x---12--12------12--12--12--12--x---12--12--12--| --------12--12--x---12--12------12--12--12--12--x---12--12--12--| /14--------------------------14----------------------------------| ----------------------------------------------------------------| ----------------------------------------------------------------| | ----------------------------------------------------------------| ----------------------------------------------------------------| ----------------------------------------------------------------| ----------------------------------------------------------------| 2-----------------------2-------2---------------0-h-1-p-0-------| 0-----------------------0-------0-------0---3---------------3---| --------12----------12------12----------------------------------| ----12------15^---------15^-----15^-\---------------------------| 14^-------------------------------------------------------------| -------------------------------------------End of Solo 2--------| ----------------------------------------------------------------| ----------------------------------------------------------------| | ----------------------------------------------------------------| ----------------------------------------------------------------| ----------------------------------------------------------------| ----------------------------------------------------------------| 2-----------------------2-------2-------5-p-0---5---5-----------| 0-----------------------0-------0-------------------------------| --------------------------------|--------------------------------| --------------------------------|--------------------------------| --------------------------------|--------------------------------| --------------------------------|--------------------------------| --------------------5p0-5-5-----|(5)^----r-----------x---x-x-x-x-| --------------------------------|--------------------------------| ----------------| ----------------| ----------------| Go back and play verse 3. ----------------| ----x---x-x-x-x-| ----------------| At the end of the chorus play the basic riff and end with: --------------------------------| |-----------------------------|---- --------------------------------| |-----------------------------|---- --------------------------------| |-----------------------------|---- --------------------------------| |-----------------------------|---- 2-----------2---2---5p0-5-5-----| |-----------------x---x-x-x-x-|2--- 0-------------------------------| |-----------------------------|0--- Backing guitar for solo 1 --------------------------------| | |--------------------------------| --------------------------------| | |--------------------------------| --------------------------------| % | % |--------------------------------| --------------------------------| | |--------------------------------| 2-----------2---2---5p0-1p0-----| | |2-----------2---2---5-0---------| 0-----------0---0-----------3p0-| | |0-----------0---0-------0-0-3-5-| --------------------------------|--------------------------------| --------------------------------|--------------------------------| --------------------------------|--------------------------------| --------------------------------|--------------------------------| 2-----------2---2---5p0-1p0-----|2-----------2---2-------0h1p0---| 0-----------0---0-----------3p0-|0-----------0---0---0-3-------3-| --------------------------------| --------------------------------| --------------------------------| 3% -> To chorus --------------------------------| 7---7---8-8-5---8---7---7---7-7-| 5---5---6-6-3---6---5---5---5-5-|

    найти лекарство
    список лекарств






    О сайтеАккордыХит-парадПоискУроки ФорумыИщу песню
    ПрограммыСвежачок-сПодпискаСтатьи
    Яндекс.Метрика