Табулатура Metallica | Nothing Else Matters Into гитара табулатуры уроки тексты песен Metallica текст lyrics песня аккорды песни ноты нота электрогитара струна  
   А Б В Г Д Е Ж З И К Л М Н О П Р С Т У Ф Х Ч Ш Ы Э Ю Я       Разные песни
1-9 A B C D E F G H I J K L M N O P Q R S T U V W Y Z      Все исполнители in english

    



группа Metallica, Табулатура песни Nothing Else Matters Into

Продолжаем грести бабос на ботах в Telegram.
Только в этот раз есть вариант автоматизировать это дело, привлекая рефералов. Вы можете заработать если »

Группа: Metallica - другие аккорды (225),   о группе (32 статей),   диски (11),   фотографии (49)
Табулатура песни: Nothing Else Matters Into
Просмотров: 21818




    

#----------------------------------PLEASE NOTE---------------------------------#
#This file is the author's own work and represents their interpretation of the #
#song. You may only use this file for private study, scholarship, or research. #
#------------------------------------------------------------------------------##
e ------------------|-------------------7----------------|-
b -------7--------5-|-------------------8----------------|-
g -------7--------5-|----------------9-------------------|-
D ----7--------5----|-------------9----------------------|-
A -5--------3-------|----------7-------------------------|-
E ------------------|-0----------------------------------|-

e ------------------|-------------0----|----------0-------|-
b ----7--------5----|-------3------2---|-------0-----0----|-
g -----7--------5---|-------4-------2--|----0-----------0-|-

Продолжаем грести бабос на ботах в Telegram.
Только в этот раз есть вариант автоматизировать это дело, привлекая рефералов. Вы можете заработать если »

D ------7--------5--|----5-------------|------------------|- A -5--------3-------|----------2-------|------------------|- E ------------------|-3----------------|-0----------------|- e ----------0-------| b -------0-----0----| {The Intro, some quick slides early on, g ----0-----------0-| {but very steady in rhythm trough out. D ------------------| {let fingerings ring as long as possible. A ------------------| E -0----------------|

поиск лекарств
список лекарств






О сайтеАккордыХит-парадПоискУроки ФорумыИщу песню
ПрограммыСвежачок-сПодпискаСтатьи
Яндекс.Метрика