Табулатура Metallica | I Disappear гитара табулатуры уроки тексты песен Metallica текст lyrics песня аккорды песни ноты нота электрогитара струна  
   А Б В Г Д Е Ж З И К Л М Н О П Р С Т У Ф Х Ч Ш Ы Э Ю Я       Разные песни
1-9 A B C D E F G H I J K L M N O P Q R S T U V W Y Z      Все исполнители in english

    



группа Metallica, Табулатура песни I Disappear

Группа: Metallica - другие аккорды (225),   о группе (32 статей),   диски (11),   фотографии (49)
Табулатура песни: I Disappear
Просмотров: 5547




    


#-----------------------------PLEASE NOTE-------------------------------------#
#This OLGA file is the author's own work and represents their interpretation  #
#of the song. You may only use this file for private study, scholarship, or   #
#research. Remember to view this file in Courier, or some other monospaced    #
#font. See http://www.olga.net/faq/ for more information.                     #
#-----------------------------------------------------------------------------#

Date: Fri, 7 Apr 2000 19:50:50 -0400
Date: Wed, 21 Jun 2000 16:21:41 -0400
Subject: m/metallica/i_disappear.tab

Most of this came from the other dude's but this was made using the method we 
call the right way.

tabbed by: Matt Smith

TAB LEGEND
h - hammer on
p - pull off
b - bend string up
r - release bend
/ - slide up
\ - slide down
v - vibrato (sometimes written as ~)
t - tap (with strumming hand)
x - muted, struck string

All guitars tuned down 1/2 step

Riff A1 (Gtr. 1)   Repeat 8 times (I think)
E|--------------------------------------|
B|*--------5b-r---------------5b-------*|
G|--------------------------------------|
D|--2---------------2--2-------------2--|
A|*-2---------------2--2-------------2-*|
E|--0---------------0--0-------------0--|


Riff A2 (Gtr. 2)  Repeat 4 times       After fourth time (leading into verse)

E|----------------------------------|  |------------|
B|*--------------------------------*|  |------------| 
G|----------------------------------|  |------------|
D|--2-----------------2-------------|  |-5-----5----|
A|*-2----2b-----------2----2b------*|  |-5-----5----|
E|--0-------3--3------0------3--3---|  |-3-----3----|





Verse Riff twice before riff c and once after riff c
Eb|------------------------------------------------------------------------|
Bb|*----------------------------------------------------------------------*|
Gb|------------------------------------------------------------------------|
Db|--2-------2--2------2------2--2-------2------2--2------2-----5--5-------|
Ab|*-2-------2--2------2------2--2-------2------2--2------2-----5--5------*|
Eb|--0-------0--0------0------0--0-------0------0--0------0-----3--3-------|


Riff C    after 2nd time
Узнай ВСЕ о своем друге в ВК или FB
Db|--5-4----7---2----| Ab|*-5-4----7---2----| Eb|--3-2----5---0----| Riff D Leads from Pre-Chorus to Chorus Ab|---5---------4------------2----------| Eb|---3---------2------------0----------| Chorus e|--15~14~------------15~14~-------12~-| B|--------15~~--------------15~~-------| G|------------14~---------------14~----| D|-------------------------------------| A|-------------------------------------| E|---------------12~~~-----------------| Solo Part. It's not accurate, but it's a start. Repeat once E|-------------------------------------------------------------------------- B|*-------12------------------------12--12--12--------------------12--12---- G|--------12----------------12b-----12--12--12-------------12b----12--12---- D|---------------/12---14------------------------/12--14-------------------- A|*------------------------------------------------------------------------- E|---0---------------------------0------------------------------0----------- -------------------------------------------------------------------------- -12---------------------12--12--12---------------------------------------- -12-------------12b-----12--12--12---------------12---14p12----14p12------ -----/12---14-------------------------/12---14--------------14-------14--- -------------------------------------------------------------------------- ---------------------0---------------------------------------------------- --------------------------------| -------------------------------*| -14p12----14p12----/16p14p12----| -------14-------14--------------| -------------------------------*| --------------------------------| Riff E (The *really* cool part) D|-2---------------------2----------------------2--------------------2-----| A|-2------------5---5----2------------5---5-----2-----------5---5----2-----| E|-0----3b-0----3---3----0----3b-0----3---3-----0----3b-0---3---3----0-----| D|---------------------| A|---------5--4--3-----| E|-3b-0----3--2--1-----|

искать в аптеке
список лекарств






О сайтеАккордыХит-парадПоискУроки ФорумыИщу песню
ПрограммыСвежачок-сПодпискаСтатьи
Яндекс.Метрика