Табулатура Metallica | Four Horsemen гитара табулатуры уроки тексты песен Metallica текст lyrics песня аккорды песни ноты нота электрогитара струна  
   А Б В Г Д Е Ж З И К Л М Н О П Р С Т У Ф Х Ч Ш Ы Э Ю Я       Разные песни
1-9 A B C D E F G H I J K L M N O P Q R S T U V W Y Z      Все исполнители in english

    



группа Metallica, Табулатура песни Four Horsemen

Продолжаем грести бабос на ботах в Telegram.
Только в этот раз есть вариант автоматизировать это дело, привлекая рефералов. Вы можете заработать если »

Группа: Metallica - другие аккорды (225),   о группе (32 статей),   диски (11),   фотографии (49)
Табулатура песни: Four Horsemen
Просмотров: 2599




    


#----------------------------------PLEASE NOTE---------------------------------#
#This file is the author's own work and represents their interpretation of the #
#song. You may only use this file for private study, scholarship, or research. #
#------------------------------------------------------------------------------##
        with SMTP id ; Mon, 19 Jul 1993 09:24:38 -0700
Date: Mon, 24 May 93 16:32:07 GMT
Message-Id: <124@dialip-48.mr.net>
To: jamesb@animal-farm.nevada.edu
Subject: Metallica - The Four Horsemen


I'll tab up the riffs, but you have to listen to the song for timing.

intro

g --5-----7--5----------------------------------------------------------
d --5--5--7--5----------------------------------------------------------
a --3--5--5--3----------------------------------------------------------
e -----3----------------------------------------------------------------

a --5--7--5--7--5--7--5--7--5--7--5--7--5-------------------------------
e --0--0--0--0--0--0--0--0--0--0--0--0--0--7----------------------------

d -----------------------------------------7p-5-------------------------
a --5--7--5--7--5--7--5--7--5--7--5-----5--------7p-5-------------------
[C [C [C [C [C [C [C [C [C [C [C [C [C [C [C [C [C [C [C [C [C [C [C [C [C [C [C [C [C [C [C [C [C [C [C [C [C [C [C [C [C [C [
C [C [C [C [C [C [C [C [C [C [C [C [C [C [C [C [C [C [C [C [C [C [C [C [C [C [C [C [C [C
e --0--0--0--0--0--0--0--0--0--0--0--7----------------------------------

a --5--7--5--7--5--7--5--7--5--7--5--7--5-----5-------------------------
e --0--0--0--0--0--0--0--0--0--0--0--0--0--7--0-------------------------

g --5-----7--5----------------------------------------------------------
d --5--5--7--5----------------------------------------------------------
a --3--5--5--3----------------------------------------------------------
e -----3----------------------------------------------------------------

verse

d -----------9-----------9-----------9--7--7----------------------------
a -----------7-----------7-----------7--5--5----------------------------
e --0--0--0-----0--0--0-----0--0--0-------------------------------------

d -----------9-----------9-----------9--5--7----------------------------
a -----------7-----------7-----------7--3--5----------------------------
e --0--0--0-----0--0--0-----0--0--0-------------------------------------

d -----------9-----------9-----------9--12--9---------------------------
a -----------7-----------7-----------7--10--7---------------------------
e --0--0--0-----0--0--0-----0--0--0-------------------------------------

g --5-----7--5----------------------------------------------------------
d --5--5--7--5----------------------------------------------------------

Продолжаем грести бабос на ботах в Telegram.
Только в этот раз есть вариант автоматизировать это дело, привлекая рефералов. Вы можете заработать если »

a --3--5--5--3---------------------------------------------------------- e -----3---------------------------------------------------------------- chorus ( I'm not sure about this. Please correct it.) g --9--9--9s--7--7--7s--5--5--5s--4---pickslide------------------------- d --9--9--9s--7--7--7s--5--5--5s--4---pickslide------------------------- a --7--7--7s--5--5--5s--3--3--3s--2---pickslide------------------------- g --9--9--9s--7--7--7s--5--5--5s--4--4--5------------------------------- d --9--9--9s--7--7--7s--5--5--5s--4--4--5--5---------------------------- a --7--7--7s--5--5--5s--3--3--3s--2--2--3--5---------------------------- e -----------------------------------------3---------------------------- bridge e --0--0--0--0--0------------------------------------------------------- g -----------------5s--4--4--------------------5------------------------ d -----------------3s--2--2--------------------3------------------------ a ---------------------------------------------------------------------- e --0--0--0--0--0---------------0--0--0--0--0--------------------------- a --7--5-----5--------------------------7--5-----5---------------------- [C [C [C [C [C [C [C [C [C [C [C [C [C [C [C [C [C [C [C [C [C [C [C [C [C [C [C [C [C [C [C [C [C [C [C [C [C [C [C [C [C [C [ C [C [C [C [C [C [C [C [C [C [C [C [C [C [C [C [C [C [C [C [C [C [C [C [C [C [C [C [C [C e --------7-----7--6--5--3--5--0--3--5--------7-----7--6-5-------------- d --5--6--7------------------------------------------------------------- a --3--4--5--------------8--7--5--7------------------------------------- e -----------0--0--5--7--------------0--0------------------------------- d --5--6--7------------------------------------------------------------- a --3--4--5------------------------------------------------------------- e -----------0--0--0--0--0--0--0--0--0--0------------------------------- a --7--5-----5---------------------------------------------------------- e --------7-----7--6--5--3--5--0--3--5---------------------------------- 1st solo d --------9--------------7--------------9--------------7---------------- a --7--7-----7--7--5--5-----5--5---------------------------------------- e --------------------------------8--8-----8--8--7--7-----7--7---------- I don't remember how the little part after this goes. The rest of the song uses riffs that I already tabbed, so I'm done. Bill

лекарство в аптеке
список лекарств

Замена WEBASTO

Ремонт и очистка скважин. Замена,пусконаладка всех типов насосов

tlr.su








О сайтеАккордыХит-парадПоискУроки ФорумыИщу песню
ПрограммыСвежачок-сПодпискаСтатьи
Яндекс.Метрика