Табулатура Metallica | Eye Of The Beholder гитара табулатуры уроки тексты песен Metallica текст lyrics песня аккорды песни ноты нота электрогитара струна  
   А Б В Г Д Е Ж З И К Л М Н О П Р С Т У Ф Х Ч Ш Ы Э Ю Я       Разные песни
1-9 A B C D E F G H I J K L M N O P Q R S T U V W Y Z      Все исполнители in english

    



группа Metallica, Табулатура песни Eye Of The Beholder

Группа: Metallica - другие аккорды (225),   о группе (32 статей),   диски (11),   фотографии (49)
Табулатура песни: Eye Of The Beholder
Просмотров: 2731




    


#----------------------------------PLEASE NOTE---------------------------------#
#This file is the author's own work and represents their interpretation of the #
#song. You may only use this file for private study, scholarship, or research. #
#------------------------------------------------------------------------------##
Date: Sat, 31 Dec 1994 16:41:34 -0600
Subject: TAB: Eye Of The Beholder by Metallica

                             EYE OF THE BEHOLDER
                                by Metallica
                     from the ...And Justice For All album

       Well here's another one for you by Metallica. I think the whole song is
here, except the solos. If anyone else wants to tab the solos and repost this
w/ the solos, go right ahead. I don't have music for the solos. Well anyway...
have fun.

Repeat & fade from pp-ff                    14x
||-------------------------------------------------||--||----------------------
||-------------------------------------------------||--||----------------------
||*-----------------------------------------------*||--||*---------------------
||*--------------------------------------------9--*||--||*---------------------
||---------------------------------------------7---||--||----------------------
||---0--0--0--0--0--0--0--0--0-----0-----0--0--0---||--||---0--0--0--0--0------
                                                                               

                                                                       4x
------------------------------|------------------------------------------------
------------------------------|------------------------------------------------
------------------------------|------------------------------------------------
------------------------------|------------------------------------------------
------------------------------|------------------------------------------------
0--0--0--3-----3-----3--3--3--|--2--2--2--2--2--2--2--2--2-----2-----2--2------
                                                                               

                                                                               
----||--||-------------------------------------------||--||--------------------
----||--||-------------------------------------------||--||--------------------
---*||--||*-----------------------------------------*||--||*-------------------
---*||--||*-----------------------------------------*||--||*-------------------
----||--||-------------------------------------------||--||--------------------
2---||--||---0--0--0-----0--0--0-----0--0--0--0--0---||--||---0--0--0-----0----
                                                                               

                                                                               
----------------------||----------------------------------------|--||----------
----------------------||----------------------------------------|--||----------
---------------------*||----------------------------------------|--||*---------
---------9--9--9--8--*||--------------------8h9p8---------------|--||*---------
---------7--7--7--7---||------------------------------7h8p7-----|--||----------
---0------------------||--0--0--0-----0--0---------0---------0--|--||---0------
                                                                               

                                                                               
-------------------------------||----------------------------------------------
-------------------------------||----------------------------------------------
------------------------------*||----------------------------------------------
------------------9--9--9--8--*||-----------------------8h9p8------------------
------------------7--7--7--7---||---------------------------------7h8p7--------
0--0-----0--0------------------||--0--0--0-----0--0------------0---------0-----
                                                                               

                                            Rhy. Fig. 1                        
|----------------------|-----------||--||--------------------------------------
|----------------------|-----------||--||--------------------------------------
|----------------------|-----------||--||*-------------------------------------
|----------------------|--2-----2--||--||*-------------------------------------
|----------------------|--2-----2--||--||--------------------------------------
|--6h7p6--0--2h3p2--0--|--0-----0--||--||----0--0--0--0--0--0--0--0--3---------
                                                                               

                                                                               
---------------|------------------------------------------------||-------------
---------------|------------------------------------------------||-------------
---------------|-----------------------------------------------*||-------------
------------5--|--------------------------------------------4--*||-------------
------------5--|--------------------------------------------4---||-------------
3-----3--3--3--|--2--2--2--2--2--2--2--2--2-----2-----2--2--2---||--0--0--0----
                                                                               

                                                                               
------------------------------------|------------------------------------------
------------------------------------|------------------------------------------
------------------------------------|------------------------------------------
------------------------------------|------------------------------------------
---------------------------------7--|------------------------------------------
0--0--0--0--0--0-----0-----0--0--0--|--0--0--0--0--0--0--0--0--0-----0---------
                                                                               

                   Rhy. Fig. 2                                                 
---------||-----|-------------------------|------------------------|-----------
---------||-----|-------------------------|------------------------|-----------
---------||-----|------9--9--10--7--7--8--|-----9--9--10--7--7--8--|-----9-----
---------||--4--|------9--9--10--7--7--8--|-----9--9--10--7--7--8--|-----9-----
------7--||--4--|------7--7--8---5--5--6--|-----7--7--8---5--5--6--|-----7-----
0--0--0--||--2--|---0---------------------|--0---------------------|--0--7-----
                                                                               

                                                                               
----------------|------------------------|------------------------|------------
----------------|------------------------|------------------------|------------
Узнай ВСЕ о своем друге в ВК или FB
9--10--7--7--8--|-----9--9--10--7--7--8--|-----9--9--10--7--7--8--|------------ 9--10--7--7--8--|-----9--9--10--7--7--8--|-----9--9--10--7--7--8--|--9--------- 7--8---5--5--6--|-----7--7--8---5--5--6--|-----7--7--8---5--5--6--|--7--------- 7--8---5--5--6--|--0--7--7--8---5--5--6--|--0--7--7--8---5--5--6--|--0--------- ------------------|--------------------|-----------------------|--------------- ------------------|--------------------|-----------------------|--------------- ------------------|--------------------|-----------------------|--------------- ---------------9--|--5--------------2--|-----------------------|--------------- ---------------7--|--5--------------2--|-----------------------|--------------- 0-----0-----0--0--|--3-----0--0--0--0--|--6--6--6-----3--3--3--|--5--5--5------ ------------------------------------|--------------||--||---------------------- ------------------------------------|--------------||--||---------------------- ------------------------------------|--------------||--||*--------------------- ------------------------------------|--4-----5--4--||--||*--------------------- ------------------------------------|--4-----5--4--||--||---------------------- ---3--3--3-----2--2--2-----3--3--3--|--2-----3--2--||--||---0--0--0--0--0------ ------------|-----------------------------|-----------------------------|------ ------------|-----------------------------|-----------------------------|------ ------------|-----------------------------|-----------------------------|------ 9--9--9--8--|-----------------9--9--9--8--|-----------------9--9--9--8--|------ 7--7--7--7--|-----------------7--7--7--7--|-----------------7--7--7--7--|------ ------------|--0--0--0--0--0--------------|--0--0--0--0--0--------------|------ -----------------------------------------------------------||------------------ -----------------------------------------------------------||------------------ ----------------------------------------------------------*||------------------ ---------------8h9p8-----------------------------------2--*||------------------ -------------------------7h8p7-------------------------2---||------------------ 0--0--0--0--0---------0---------0--6h7p6--0--2h3p2--0--0---||------------------ Go back and play next verse here. -------------------------------||--||--------------------------||-------------- -------------------------------||--||--------------------------||-------------- -------------------------------||--||*-----9--9--10--7--7--8--*||-------------- -------------------------------||--||*-----9--9--10--7--7--8--*||--9----------- -------------------------------||--||------7--7--8---5--5--6---||--7----------- -------------------------------||--||---0--7--7--8---5--5--6---||--0-----0----- ---------||------------------------|------------------------|------------------ ---------||------------------------|------------------------|------------------ ---------||-----9--9--10--7--7--8--|-----9--9--10--7--7--8--|------------------ ------9--||-----7--7--10--7--7--8--|-----9--9--10--7--7--8--|--9--------------- ------7--||-----7--7--8---5--5--6--|-----7--7--8---5--5--6--|--7--------------- 0--0--0--||--0---------------------|--0---------------------|--0-----0--0------ ------|-----|-----------------------------------|-----||----------------------- ------|-----|-----------------------------------|-----||----------------------- ------|-----|-----------------------------------|-----||----------------------- ---9--|--2--|--5--------------------------------|--2--||----------------------- ---7--|--2--|--5--2--2--2--2--2--2--2--2--2--2--|--2--||----------------------- 0--0--|--0--|--3--0--0--0--0--0--0--0--0--0--0--|--0--||----------------------- ======= == TABLATURE EXPLANATION == ======= ---------- ---------- ----5h8--- Hammeron ----(8)--- Ghost Note ---------- ---------- ----5p8--- Pulloff ---------- ---------- ---------- ----5/8--- Slide Up -----x---- Dead Note ---------- ---------- ----5\8--- Slide Down ---------- ---------- ||------|| Repeat Start & End ----5~~~-- Vibrato ||*----*|| ---------- ||*----*|| ---------- ||------|| Rhythm: w = whole note W = dotted whole h = half note H = dotted half q = quarter note Q = dotted quarter e = eighth note E = dotted eighth s = sixteenth note S = dotted sixteenth ^ = triplet

искать в аптеке
список лекарств

Юбилейные монеты России

Альбомы для монет от производителя. Монеты разных стран. Низкие цены

greatcoins.ru

Материал для фильтровального рукава

рукав фильтровальный

system-filters.ru

Доска необрезная лиственница цена

Доски для пола из лиственницы, вагонка и пр

listvenniza-doska.ru








О сайтеАккордыХит-парадПоискУроки ФорумыИщу песню
ПрограммыСвежачок-сПодпискаСтатьи
Яндекс.Метрика