Табулатура Metallica | Breadfan Solo гитара табулатуры уроки тексты песен Metallica текст lyrics песня аккорды песни ноты нота электрогитара струна  
   А Б В Г Д Е Ж З И К Л М Н О П Р С Т У Ф Х Ч Ш Ы Э Ю Я       Разные песни
1-9 A B C D E F G H I J K L M N O P Q R S T U V W Y Z      Все исполнители in english

    



группа Metallica, Табулатура песни Breadfan Solo

Группа: Metallica - другие аккорды (225),   о группе (32 статей),   диски (11),   фотографии (49)
Табулатура песни: Breadfan Solo
Просмотров: 2703




    


#This file is the author's own work and represents their interpretation of the#
#song. You may only use this file for private study, scholarship, or research.#
#-----------------------------------------------------------------------------#
#-- File created with Instab - http://www.pconline.com/~smcarey/instab.html --#
#-----------------------------------------------------------------------------#

Author/Artist: Metallica 
Title: Beadfan
Transcribed by: Iron
ironxman@poczta.onet.pl

Poprosilem kumpla aby rozpisal ta solowke. Nie jest ona taka trudna.
Uwaga!! Pod koniec Hammet gra zupelnie inaczej. Jezeli umiesz ta koncowke 
wyslij mi taba.
To na tyle.


Part 1
-------------------------------------------------|----------------------------
-------------------------------------------------|----------------------------
-----------------14h16p14------------------------|----------------------------
-12/17----16-17----------------------------------|----------------------------
-------------------------------------------------|----------------------------
-------------------------------------------------|----------------------------
                                                                              

--------------------------------14-15-15-15h17-15|----------------------------
---------------15-17-------17--------------------|----------------------------
------14-16-16-----------------------------------|----------------------------
--17---------------------------------------------|----------------------------
-------------------------------------------------|----------------------------
-------------------------------------------------|----------------------------
                                                                              

--14-15-17-15----17p14---------------------------|----------------------------
------------------------15-----------------------|----------------------------
-------------------------------------------------|----------------------------
-------------------------------------------------|----------------------------
-------------------------------------------------|----------------------------
-------------------------------------------------|----------------------------
                                                                              

Part 2
-------------------------------------------------|----------------------------
---------------------------15^-------------------|----------------------------
--14^-16-16-16-16--14--12------------------------|----------------------------
-------------------------------------------------|----------------------------
Узнай ВСЕ о своем друге в ВК или FB
-------------------------------------------------|---------------------------- -------------------------------------------------|---------------------------- -------------------------------------------------|---------------------------- ---------------------------17^-------------------|---------------------------- --17^-19-19-19-19--17--15------------------------|---------------------------- -------------------------------------------------|---------------------------- -------------------------------------------------|---------------------------- -------------------------------------------------|---------------------------- ------15-----15---------------15^----------------|---------------------------- --15^----15^----15^-15-13------------------------|---------------------------- --------------------------14---------------------|---------------------------- -------------------------------------------------|---------------------------- -------------------------------------------------|---------------------------- -------------------------------------------------|---------------------------- -------17-17-17-17-------------20^---------------|---------------------------- --20^---------------20p17------------------------|---------------------------- ---------------------------18--------------------|---------------------------- -------------------------------------------------|---------------------------- -------------------------------------------------|---------------------------- -------------------------------------------------|---------------------------- --22-20-19------17-15-14-15-14----14-------------|---------------------------- ------------19-----------------17----17-15-17----|---------------------------- -------------------------------------------------|---------------------------- -------------------------------------------------|---------------------------- -------------------------------------------------|---------------------------- -------------------------------------------------|---------------------------- -------------------------------------------------|---------------------------- --15----15---------------------------------------|---------------------------- -----17----16------------------------------------|---------------------------- --------------17---------------------------------|---------------------------- -------------------------------------------------|---------------------------- -------------------------------------------------|----------------------------

искать в аптеке
список лекарств

Настенные часы хермле

Часы настенные. Купи сейчас. В наличии, доставка

hermle-rus.ru








О сайтеАккордыХит-парадПоискУроки ФорумыИщу песню
ПрограммыСвежачок-сПодпискаСтатьи
Яндекс.Метрика