Табулатура Metallica | Breadfan гитара табулатуры уроки тексты песен Metallica текст lyrics песня аккорды песни ноты нота электрогитара струна  
   А Б В Г Д Е Ж З И К Л М Н О П Р С Т У Ф Х Ч Ш Ы Э Ю Я       Разные песни
1-9 A B C D E F G H I J K L M N O P Q R S T U V W Y Z      Все исполнители in english

    



группа Metallica, Табулатура песни Breadfan

Группа: Metallica - другие аккорды (225),   о группе (32 статей),   диски (11),   фотографии (49)
Табулатура песни: Breadfan
Просмотров: 3747




    


#----------------------------------PLEASE NOTE--------------------------------#
#This file is the author's own work and represents their interpretation of the#
#song. You may only use this file for private study, scholarship, or research.#
#-----------------------------------------------------------------------------#

Date: Fri, 17 Apr 1998 05:41:54 -0500
Subject: m/metallica/breadfan.tab



Breadfan - Covered by Metallica on Garage Days 4
Transcribed by Eben Geer - spdmetal@cyberramp.net

This song was originally submitted to OLGA by tscott@plains.NoDak.edu 
(The BassMaster).  

First Verse
Breadfan, open up your mind, open up your purse,
Open up your bones, never, never gonna lose it.
Breadfan, take it all away, never give an inch,
Gotta make a mint, gotta make me a million.
Breadfan, you got it wrong, some long time friend's
Gonna lose it in the end, who's a fool.
Seagull, give it all away, stay a bird, stay a man,
Stay a ghost, stay what you wanna be.

Second Verse
Loser, give it all away, never stay with the winner,
With the man with all the filthy money.
Come on, keep it on the side, with a ride on a record,
On the top if you're gonna be a bad boy.
Breadfan, you got it wrong, some long time friend's
Gonna lose it in the end, who's a fool.
Seagull, give it all away, stay a bird, stay a man,
Stay a ghost, stay what you wanna be.

Third Verse
Breadfan, open up your mind, open up your purse,
Open up your bones, never, never gonna lose it.
Breadfan, take it all away, never give an inch,
Gotta make a mint, gotta make me a million.
Breadfan, you got it wrong, some long time friend's
Gonna lose it in the end, who's a fool.
Seagull, give it all away, stay a bird, stay a man,
Stay a ghost, stay what you wanna be.

Normal tuning - E A D G B e

Riff A - 8x                                      8th time play Fill 1
|-------------------------------------------|---------------------------------|
|-------------------------------------------|---------------------------------|
|-------------------------------------------|---------------------------------|
|-------------------------------------------|---------------------------------|
|-5h7--7--5h7--7--5h7--7--5h7--7--5h7--7--7-|-5h7--7--5^7--7--7--5------------|
|-------------------------------------------|-----------------------7--5--3~-0|

Fill 1                              PM PM
|----------------------------------------|
|----------------------------------------|
|----------------------------------------|
|----------------------------------------|
|--5h7--7--5^7--7--7--5------------------|
|------------------------7--5--3~--3--2--|


1st Verse
Riff B
   PM    PM------|     PM------|     PM------|    PM  PM                            
|-----------------------------------------------------------------------------|
|-----------------------------------------------------------------------------|
|.---------------------------------------------------------------------------.|
|.-2--2--0-2-2-0-2-----0-2-2-0-2-----0-2-2-0-2----0---0---0---0---0---0-0--1-.|
|--2--2--0-2-2-0-2-----0-2-2-0-2-----0-2-2-0-2----0---0---0---0---0---0-0--1--|
|--0--0----------0-------------0-------------0--------------------------------|

   PM    PM------|        PM--|        PM--|
|-----------------------------------------------------------------------------|
|-----------------------------------------------------------------------------|
|.---------------------------------------------------------------------------.|
|.-2--2--0-2-2-0-2----0---2-0-2----0---2-0-2-------5-----0----0----0---0-0-1-.|
|--2--2--0-2-2-0-2----0---2-0-2----0---2-0-2---5h7---7\5-0----0----0---0-0-1--|
|--0--0----------0------------0------------0----------------------------------|

Between verses 1 & 2 play Riff A 4x
2nd Verse - play Riff B

I'm working on the solo - here's the rhythm underlying it:

|-----------------------------------------------------------------------------|
|-----------------------------------------------------------------------------|
|-----------------------------------------------------------------------------|
|--2--------------------------------------------------------------------------|
|--2--------------------------------------------------------------------------|
|--0--------------------------------------------------------------------------|

|-----------------------------------------------------------------------------|
|-----------------------------------------------------------------------------|
|-----------------------------------------------------------------------------|
|--2------------------------------1--2----------------------------------0--1--|
|--2------------------------------1--2----------------------------------0--1--|
|--0---------------------------------0----------------------------------------|

|-------------------------------------------------------------------------|
|-------------------------------------------------------------------------|
|-------------------------------------------------------------------------|
|--2-------------1--2-------------1--2------1--2--------------------------|
|--2-------------1--2-------------1--2------1--2------4--4/5---5---5---5--|
|--0----------------0----------------0---------0------2--2/3---3---3---3--|

|----------------------------------------------------------------------|
|----------------------------------------------------------------------|
|----------------------------------------------------------------------|
|----------------------------------------------------------------------|
|--4/5---5---5---5--4/5---5---5---5--4/5---5---5---5--4/5---5---5---5--|
|--2/3---3---3---3--2/3---3---3---3--2/3---3---3---3--2/3---3---3---3--|

|----------------------------------------------------------------------|
|----------------------------------------------------------------------|
|----------------------------------------------------------------------|
|----------------------------------------------------------------------|
|--6/7---7---7---7--6/7---7---7---7--6/7---7---7---7--6/7---7---7---7--|
|--4/5---5---5---5--4/5---5---5---5--4/5---5---5---5--4/5---5---5---5--|

Riff C
|----------------------------------|
|----------------------------------|
|----------------------------------|
|----------------------------------|
|--7------5------7------5---7---5--|
|--5------3------5------3---5---3--|
Узнай ВСЕ о своем друге в ВК или FB
Riff D e |-----------------------------------------------------------| B |-----------------------------------------------------------| G |-----------------------------------------------------------| D |------5-------------3--------------------------------------| A |--5h7---7\------3h5---5\----------7-------------2----------| E |------------------------------5h7---7\------0h2---2-3---4--| then play Riff C again and follow it with a fading E5 Interlude - Acoustic |----------------------------------------|------------------------------------| |---------------8-------8----------------|------------6--5---6----------------| |------------9------9------9p0--0--------|---------7-------------7p0--0-------| |---------9------------------------------|------7-----------------------------| |------7---------------------------------|-5----------------------------------| |-0--------------------------------------|------------------------------------| |----------------------------------------|------------------------------------| |---------------8-------8----------------|------------6--5---6----------------| |------------9------9------9p0--0--------|---------7-------------7p0--0-------| |---------9------------------------------|------7-----------------------------| |------7---------------------------------|-5--------------------------------6-| |-0--------------------------------------|------------------------------------| |----------------------------------------|------------------------------------| |---------------8-------8----------------|------------6--5---6----------------| |------------9------9------9p0--0--------|---------7-------------7p0--0-------| |---------9------------------------------|------7-----------------------------| |-7----7-------------------------------6-|-5--------------------------------6-| |----------------------------------------|------------------------------------| |----------------------------------------|------------------------------------| |---------------8-------8----------------|------------6--5---6----------------| |------------9------9------9p0--0--------|---------7-------------7p0--0-------| |---------9------------------------------|------7-----------------------------| |-7----7-------------------------------6-|-5--------------------------------4-| |----------------------------------------|------------------------------------| |---------------0------------------------|-------------------0----------------| |------------3------3--------------------|------------0--3-------3p0--0-------| |---------0-------------0----------------|------------------------------------| |------5--------------------5------------|---------2--------------------------| |-3--------------------------------------|------2-----------------------------| |--------------------------------------1-|-0--------------------------------1-| e |--------------------0------------------| B |-------------0--3-------3p0--0---------| G |---------------------------------------| D |----------2----------------------------| A |-------2-------------------------------| E |--0---------------------------------1--| |----------------------------------------|------------------------------------| |---------------8-------8----------------|------------6--5---6----------------| |------------9------9------9p0--0--------|---------7-------------7p0--0-------| |---------9------------------------------|------7-----------------------------| |------7-------------------------------6-|-5--------------------------------6-| |-0--------------------------------------|------------------------------------| |----------------------------------------|------------------------------------| |---------------8-------8----------------|------------6--5---6----------------| |------------9------9------9p0--0--------|---------7-------------7p0--0-------| |---------9------------------------------|------7-----------------------------| |-7----7-------------------------------6-|-5--------------------------------4-| |----------------------------------------|------------------------------------| |---------------0------------------------|-------------------0----------------| |------------3------3--------------------|------------0--3-------3p0--0-------| |---------0-------------0----------------|------------------------------------| |------5--------------------5------------|---------2--------------------------| |-3--------------------------------------|------2-----------------------------| |--------------------------------------1-|-0--------------------------------1-| 5x - 2nd through 5th play with Riff E e |--------------------0------------------| B |-------------0--3-------3p0--0---------| G |.-------------------------------------.| D |.---------2---------------------------.| A |-------2-------------------------------| E |--0---------------------------------1--| Riff E - Distortion |--------------------------------------|--------------------------------------| |--------------------------------------|--------------------------------------| |--------------------------------------|--------------------------------------| |-------/5--5--5--5---4---2------------|-------/5--5--5--5---4---5------------| |-------/7--7--7--7---5---2------------|-------/7--7--7--7---5---7------------| |--------------------------------------|--------------------------------------| |--------------------------------------|--------------------------------------| |--------------------------------------|--------------------------------------| |-------/4--4--4--4--5p4--4------------|-------/4--4--4--4---2---4------------| |-------/5--5--5--5-------5------------|-------/5--5--5--5---4---5------------| |--------------------------------------|--------------------------------------| |--------------------------------------|--------------------------------------| then play: E5 palm muted 10x and open 2x Riff C Riff A 4x w/ Fill 2 on the fourth time 'round Fill 2 PM-----------------------| e |----------------------------------------| B |----------------------------------------| G |----------------------------------------| D |--2-2----2-2----2-2----2-2----2----2----| A |--2-2----2-2----2-2----2-2----2----2----| E |--0-0----0-0----0-0----0-0----0----0----| 3rd Verse - Riff B Riff A 4x E5 - let ring Fill 2 - all palm muted Closing Riff e |--------------------------| B |--------------------------| G |--------------------------| D |--4/5--5--4/5--5--4/5--2--| A |--5/7--7--5/7--7--5/7--2--| E |-----------------------0--|

лекарство в аптеке
список лекарств

Рулонные полотенца для рук enmotion Impulse

полотенца оптом. Заказывайте

bum-master.ru

Купить кухню по ценам фабрики

Итальянская кухня в Петербурге - пицца, паста, лазанья и многое другое

mebelkhb.ru








О сайтеАккордыХит-парадПоискУроки ФорумыИщу песню
ПрограммыСвежачок-сПодпискаСтатьи
Яндекс.Метрика