Табулатура Grim Skunk | Dont Hide гитара табулатуры уроки тексты песен Grim Skunk текст lyrics песня аккорды песни ноты нота электрогитара струна  
   А Б В Г Д Е Ж З И К Л М Н О П Р С Т У Ф Х Ч Ш Ы Э Ю Я       Разные песни
1-9 A B C D E F G H I J K L M N O P Q R S T U V W Y Z      Все исполнители in english

    



группа Grim Skunk, Табулатура песни Dont Hide

Продолжаем грести бабос на ботах в Telegram.
Только в этот раз есть вариант автоматизировать это дело, привлекая рефералов. Вы можете заработать если »

Группа: Grim Skunk - другие аккорды (3)
Табулатура песни: Dont Hide
Просмотров: 1465




    
#----------------------------------PLEASE NOTE---------------------------------#
#This file is the author's own work and represents their interpretation of the #
#song. You may only use this file for private study, scholarship, or research. #
#------------------------------------------------------------------------------##
From: syk@nyongwa.montreal.qc.ca (Bruno Lamoureux)
Subject: TAB: Don't hide / Grim Skunk

Titre:         Don't Hide
Groupe:        Grim Skunk
Album:         Grim Skunk
Ecrit Par:     Grim Skunk
Transcrit Par: B. Lamoureux
----------------------------------------------------------------------
I juste write the chord, find the rythm by yourself! it's easy..     
----------------------------------------------------------------------
                                                                      
                                                                      
guitar 1                                                              
|------------------------------------------------------------------------
|------------------------------------------------------------------------
|-------7----------------------------------------------------------------
|-9--5--7--7-------------------------------------------------------------
|-9--5--5--7-------------------------------------------------------------
|-7--3-----5-------------------------------------------------------------


                                               Don't Hide, 1,2,3,4!   
   play this riff a couple of time                                    
guitar 2                                                              
|--------------------------------------|-----0-0|------------------------
|--------------------------------------|-2-2-2-2|------------------------
|------------------------2-0-----------|-2-2----|------------------------
|----------------0------0----4-2-2-0---|--------|------------------------
|----------2-2-4---0-2-4-------------4-|--------|------------------------
|-----------------3--------------------|--------|------------------------


rhytm A             rhytm B                                           
                                                                      
                                                                      
|-------------------|-------------|--------------------------------------
|-------------------|-------------|--------------------------------------
|--------------7--6-|--------7----|--------------------------------------
|-9--5--7---9--7--6-|--9--5--7--7-|--------------------------------------
|-9--5--7---9--5--4-|--9--5--5--7-|--------------------------------------
|-7--3--5---7--5--4-|--7--3--5--5-|--------------------------------------


                                                                      

Продолжаем грести бабос на ботах в Telegram.
Только в этот раз есть вариант автоматизировать это дело, привлекая рефералов. Вы можете заработать если »

pm. .... .... .... .... .... |---------------------------------------------------|-------------------- |---------------------------------------------------|-------------------- |-------------------------------------------7-6/7\6-|-------------------- |-----9------9------5------7------9------9--7-6/7\6-|-------------------- |-----9------9------5------7------9------9--5-4/5\4-|-------------------- |-7-7-7--7-7-7--3-3-3--5-5-5--7-7-7--7-7-7----------|-------------------- rhytm A rhytm B |-----------------|--------|---------|----------------------------------- |-----------------|--------|---------|----------------------------------- |-------------7-6-|--------|---------|----------------------------------- |-9--5--7--9--7-6-|--------|---------|----------------------------------- |-9--5--7--9--5-4-|--------|---------|----------------------------------- |-7--3--5--7------|--------|---------|-------------------------------5h7- 1 step 1 step |------------------------------------------------------------------------ |----------------------------------------------------10--10-------------- |----------------------------------------------7-9-9^--9^--9^-9---------- |-------------------------------------------7h9----------------7-9------- |---5-7^------7^-5-7--------5-7^---7^-5-7/9------------------------------ |-7------------------5h7--7---------------------------------------------- vibrato and make feedback with these harmonic |------------------------------------------------------------------------ |-------10---------------------------------------(12)-------------------- |-7-9-9^---9^-9-7-9-7---------------------------------------------------- |--------------------9------------------------or------------------------- |------------------------------------------------------------------------ |------------------------------------------(7)--------------------------- Ce fichier a ‚t‚ cr‚e par Tab 1.1

найти лекарство
список лекарств






О сайтеАккордыХит-парадПоискУроки ФорумыИщу песню
ПрограммыСвежачок-сПодпискаСтатьи
Яндекс.Метрика