Аккорды Ария | Антихрист гитара табулатуры уроки тексты песен Ария текст lyrics песня аккорды песни ноты нота электрогитара струна  
   А Б В Г Д Е Ж З И К Л М Н О П Р С Т У Ф Х Ч Ш Ы Э Ю Я       Разные песни
1-9 A B C D E F G H I J K L M N O P Q R S T U V W Y Z      Все исполнители in english

    



группа Ария, Аккорды песни Антихрист

Продолжаем грести бабос на ботах в Telegram.
Только в этот раз есть вариант автоматизировать это дело, привлекая рефералов. Вы можете заработать если »

Группа: Ария - другие аккорды (629),   о группе (7 статей),   диски (18),   фотографии (92)
Аккорды песни: Антихрист
Просмотров: 10467
Прислал: Ostapchuk Vladimir




    

Main riff :

E<----------2 times--------->|

H<----4x----->|<----4x----->||
G---------0---|---------0---||
D------4------|------4------||
A---2---------|---3---------||
E-------------|-------------||

Intro, I Verse  - main riff 6 times.

Chorus :

E------------------------------------------|<----4 x---->||
H------------------------------------------|-------------||
G------------------------------------------|---------0---||
D--------------------------0---------2-----|------4------||
A------2---------4------2-----2---4-----4--|---2---------||
E---3-----3---5-----5----------------------|-------------||


E--------------------------------------------------------||
H--------------------------------------------------------||
G--------------------------------------------------------||
D--------------------------0-----------------------------||
A------2---------4------2-----2---4----------------------||
E---3-----3---5-----5------------------------------------||


II Verse : main riff 4 times.

E<-H5------2 x---C5------->|<-F#5------2 x---G5--------||
H<----4 x---->|<----4x---->|<----4 x---->|<----4 x---->||
G---------0---|--------0---|---------0---|---------0---||
D------4------|-----4------|------4------|------4------||
A---2---------|--3---------|---2---------|---3---------||
E-------------|------------|-------------|-------------||


Chorus.


III verse:

I not sure in this chords.


H5, C#5, D5  2x

C5, D5,  E5,

C5,C5, E5 3x


Chorus 1 :


E------------------------------------------||

Продолжаем грести бабос на ботах в Telegram.
Только в этот раз есть вариант автоматизировать это дело, привлекая рефералов. Вы можете заработать если »

H------------------------------------------|| G------------------------------------------|| D--------------------------0---------2-----|| A------2---------4------2-----2---4-----4--|| E---3-----3---5-----5----------------------|| E----------------------------------------------------------|| D----------------------------------------------------------|| G---4--4--4--------5--4---------4--4--4--------5--4--------|| D---4--4--4--------------5--4---4--4--4----------5--4------|| A---2--2--2---------------------2--2--2--------------------|| E----------------------------------------------------------|| E----------------------------------------------------------|| H----------------------------------------------------------|| G----------------------------------------------------------|| D--------------------------0-------------------------------|| A------2---------4------2-----2---4----2-2-2-2-2-2-2-2-2...|| E---3-----3---5-----5--------------------------------------|| Bridge ? Solo : E---14----12-----12--10------12\---12-0-0--14-0-0--15-0-0--19--|| H------------------------12------------------------------------|| G--------------------------------------------------------------|| D--------------------------------------------------------------|| A--------------------------------------------------------------|| E--------------------------------------------------------------|| E---17~~~~-------15-14-15--14h15p14--12---14-------------------|| H--------------------------------------------------------------|| G--------------------------------------------------------------|| D--------------------------------------------------------------|| A--------------------------------------------------------------|| E--------------------------------------------------------------||

найти лекарство
список лекарств

Автостекло на спецтехнику

Продажа спецтехники. Сравните цены от всех поставщиков в Уфе

autolineufa.ru








О сайтеАккордыХит-парадПоискУроки ФорумыИщу песню
ПрограммыСвежачок-сПодпискаСтатьи
Яндекс.Метрика