Табулатура Rusty | California гитара табулатуры уроки тексты песен Rusty текст lyrics песня аккорды песни ноты нота электрогитара струна  
   А Б В Г Д Е Ж З И К Л М Н О П Р С Т У Ф Х Ч Ш Ы Э Ю Я       Разные песни
1-9 A B C D E F G H I J K L M N O P Q R S T U V W Y Z      Все исполнители

    



группа Rusty, Табулатура песни California

Группа: Rusty - другие аккорды (5)
Табулатура песни: California
Просмотров: 1885




    
#----------------------------------PLEASE NOTE---------------------------------#
#This file is the author's own work and represents their interpretation of the #
#song. You may only use this file for private study, scholarship, or research. #
#------------------------------------------------------------------------------#

From:   Jay Bilyk [mdbilyk@eidnet.org]
Sent:   Wednesday, December 17, 1997 8:18 PM

ARTIST - Rusty
SONG   - California
ALBUM  - Fluke
TUNING - Standard


       BEGGINING- This is played at the start once (Light Distortion)
E--2-----5-------------------------------0-------0-------------0----|
B--3--------3-----3----5---5---5--2--------3--------3-----3-------3-|
G--2---2-------2-------2---2------3-----------0--------0------------|
D--0----------------------------------2-----------------------------|
A--0----------------------------------------------------------------|
E-----------------------------------------------------------3-------|
  Dmaj.
                                                     Hand Mute 1st 4
                                                          / | | \
 |---0-------------------5------------------------------------------|
 |------3-----3---------------3-----3----5--5---5--2----------------|
 |-0-------0---------------------2-------2--2-----------------------|
 |---------------4\2--2-----------------------------------5-5-5-5-5-|
 |--------------------------------------------------------5-5-5-5-5-|
 |--------------------------------------------------------3-3-3-3-3-|
                                                              F5
             F5
 |--------------------------|
 |--------------------------|
 |--------------------------|
 |-5-5-5-5-5-5-5-5-5-5-5----|
 |-5-5-5-5-5-5-5-5-5-5-5----|
 |-3-3-3-3-3-3-3-3-3-3-3----|

                   VERSE
E---------5-------------------------------0--------0-------------0--|
B--------------2-----2---5--5---5--3---------3--------3-----3-------|
G-----------------3------2--2-------------------0--------0----------|
D-4/2--2-------------------------------2----------------------------|
A-------------------------------------------------------------------|
E-------------------------------------------------------------3-----|

 |------0------------------5----------------------------------------|
 |-3-------3-----3------------2-----2---5--5--5--3------------------|
 |---0--------0------------------3------2--2----------7/9--7/9--7/9-|
 |------------------4/2-2-----------------------------7/9--7/9--7/9-|
 |------------------------------------------------------------------|
 |------------------------------------------------------------------|
                                  Dmaj.
 |----------------------------------2------5------------------------|
 |----------------------------------3---------3-----3---5--5---5--3-|
 |---------------9--7---------------2---2--------2------2--2--------|
 |-7--5--9----9--------9--7--5--4---0-------------------------------|
 |------------------------------------------------------------------|
 |------------------------------------------------------------------|

 |-----0--------0--------------0--------0--------------------5------|
 |--------3--------3-----0--------3--------3-----3--------------3---|
 |-----------0--------0--------------0--------0--------------------2|
 |--2------------------------------------------------4\2--2---------|
 |------------------------------------------------------------------|
 |--------------------------3---------------------------------------|

 |--------------------0--3-3---0--3-3--------------------------|
 |-3---5--5---5--3---------------------------------------------|
 |-----2--2----------------------------------------------------|
 |-------------------------------------7/9--7/9--7/9--7--5--9--|

Продолжаем грести бабос на ботах в Telegram.
Только в этот раз есть вариант автоматизировать это дело, привлекая рефералов. Вы можете заработать если »

|-------------------------------------------------------------| |-------------------------------------------------------------| Chorus (Heavy Distortion) D5 A5 E5 G5 D5 A5 E5 G5 E-------------------------------------------------------------------| B-------------------------------------------------------------------| G-7--7----------------------------7------------x--------------------| D-7--7--7-7-7--2--2-2--5--5-5-5---7---7---2----x-5--5-5-5-5-5-5-5-5-| A-5--5--7-7-7--2--2-2--5--5-5-5---5---7---2----x-5--5-5-5-5-5-5-5-5-| E-------5-5-5--0--0-0--3--3-3-3-------5---0----x-3--3-3-3-3-3-3-3-3-| ^Fill^___________________________ \ A5 |----------------------------------| E-----------| |----------------------------------| B--8-7-5----| |----------------------------------| G--------7--| |-7-7-7-7-7-7-7-7-7-7-7-7-7-7-7-7--| D-----------| |-7-7-7-7-7-7-7-7-7-7-7-7-7-7-7-7-7| A-----------| |-5-5-5-5-5-5-5-5-5-5-5-5-5-5-5-5--| E-----------| After 2nd Chorus A5 D5 C5 E-----------------------------| B-----------------------------| G----------7--3-3-3-3-3-3-3-3-| D-----7----7--3-3-3-3-3-3-3-3-| A-----7--5----5-5-5-5-5-5-5-5-| E--5--------------------------| VERSE 1 I met her while in France We had a brief romance She rubbed my arm I rubbed her arm And then we dirty danced She move down to LA She met a dude OK And sawed her head off with a knife CHORUS Now she's gone away......yeah In a way.......yeah In a way.......yeah In a way.......yeah Went away now VERSE 2 California's nice It's snowed there once or twice Bullets fly across the sky The path is smooth and tight I caught one at the bus-stop He set him in a mint jar I felt the warm blood role down Song Order: VERSE 1 CHORUS VERSE 2 CHORUS VERSE 1 CHORUS Ben Hajash Jay Bilyk mdbilyk@eidnet.org








О сайтеАккордыХит-парадПоискУроки ФорумыИщу песню
ПрограммыСвежачок-сПодпискаСтатьи
Яндекс.Метрика