Табулатура Radiohead | Just гитара табулатуры уроки тексты песен Radiohead текст lyrics песня аккорды песни ноты нота электрогитара струна  
   А Б В Г Д Е Ж З И К Л М Н О П Р С Т У Ф Х Ч Ш Ы Э Ю Я       Разные песни
1-9 A B C D E F G H I J K L M N O P Q R S T U V W Y Z      Все исполнители in english

    



группа Radiohead, Табулатура песни Just

Работа в Европе для граждан РФ, Украины, СНГ

  • минимальная зарплата $500.
  • виза и контракт на полгода, возможно продление
  • проживание оплачивает работодатель
  • нужен только загранпаспорт
  • оформление 190 €
  • данное предложение - отличная возможность эмигрировать в Европу и закрепиться здесь навсегда.

  • Мы свяжемся с Вами по WhatsApp или Viber и ответим на любые вопросы.
    на нашем сайте можно почитать подробнее »

    Группа: Radiohead - другие аккорды (189),   о группе (6 статей),   диски (9),   фотографии (134)
    Табулатура песни: Just
    Просмотров: 2630




        
    
    #----------------------------------PLEASE NOTE---------------------------------#
    #This file is the author's own work and represents their interpretation of the #
    #song. You may only use this file for private study, scholarship, or research. #
    #------------------------------------------------------------------------------##
    #
    
    Date: Thu, 27 Jun 1996 16:16:21 +0100 (BST)
    From: Neil Jenkins 
    
    
    
    Just by Radiohead
    
    rbullock had the intro and the distorted slide correct
    
    Intro/Clean:
    e-----------------------
    B-----------------------
    G-5-5-7-7-6-6-6-10-10-10
    D-5-5-7-7-6-6-6-10-10-10
    A-3-3-5-5-4-4-4-8--8--8-
    E-----------------------
    
    Distortion:
    e-----------------------------8-8-10-11-11-13-14-14-15-16-16
    B-----------------------------------------------------------
    G-5-5-7-8-8-10-11-11-13-14-14-5-5-7--8--8--10-11-11-13-14-14
    D-5-5-7-8-8-10-11-11-13-14-14-------------------------------
    A-3-3-5-6-6-8--9--9--11-12-12-------------------------------
    E-----------------------------------------------------------
    
    Here are a few additions
    The verse now starts
    E---5------------4-------------------7-----7--9-----9------------
    B---5------------4-------------------9-10----11-12--------------
    G---5------------5-------------------9--------11-----------------
    D---7------------6-------------------9--------11-----------------
    A---7------------6-------------------7--------9------------------
    E----5------------5------------------7---------9-----------------
            Can=D5t...........It=D5s been
    
    E---5------------4-------------------7-----7--7------------------
    B---5------------4-------------------9-10-----7-----7-----------
    G---5------------5-------------------9---------8--9--------------
    D---7------------6-------------------9---------9-----------------
    A---7------------6-------------------7--------9------------------
    E----5------------5------------------7---------7-----------------
           Comes...        Suckered you ..
    
    
    E----------------------------------------------------------------
    B----------------------------------------------------------------
    G--------5--7-7b-5-7------5-7-7b-5--7-----------------
    D----7------------------7----------------------5------4---3------
    A--------------------------------------------5------4------3-----
    E-------------------------------------------3-----2--------1-----
           one day he=D5ll........and teach you.....ho----ly------cow
    
    
    E-----------------5-----2-----0-------1-------------------------
    B-----------------3------2-------3---1---------------------------
    G-----------------3-----3------------2--------------------------
    D----------------3------4------------3---------------------------
    A----------------5------4------------3--------------------------
    E-----------------5-----2------------1---------------------------
    
    You do....self...........you do.........thats what really hurts
    
    REPEAT ONCE
    
    THEN INTRO/PRE VERSE UP-SLIDE
    
    THEN REPEAT VERSE
    =20
    BRIDGE IS=20
    
    E----------------------------------------------------------------
    B---17--17--15--13--13------16--15--13-13----11-12-11--9-10-9
    G---17--17--16--14-14-------17--15--13-13----11---------9-------
    D----------------------------------------------------------------
    A----------------------------------------------------------------
    E----------------------------------------------------------------
    
    repeat once
    
    
    E----------------------------------------------------------------
    B----------------------------------------------------------------
    G----------------------------------------------------------------
    D---5--5--5--5----4--4---4---4----3------------------------------
    A---5--5--5--5-----4--4--4--4-----3----------------------------
    E----3--3--3--3-----2--2--2--2-----1----------------------------
    
    
    
    THEN CHORUS AGAIN ETCETC
    
    there, wasn't that fun
    
    email me with comments    neil.jenkins@green.ox.ac.uk
    
    
    
    From neil.jenkins@green.oxford.ac.uk Fri Jun 28 13:33:11 1996
    Received: from post-office.nevada.edu (post-office.nevada.edu [131.216.1.11]) by mailhost.tcs.tulane.edu (8.6.12/8.5) with ESMTP id IAA22934; Fri, 28 Jun 1996 08:32:41 -0500
    Received: from oxmail3.ox.ac.uk (oxmail3.ox.ac.uk [163.1.2.9]) by post-office.nevada.edu (8.6.12/8.6.4) with SMTP id DAA23913 for ; Fri, 28 Jun 1996 03:46:59 -0700
    Received: from sable.ox.ac.uk by oxmail3 with SMTP (PP) with ESMTP;
              Fri, 28 Jun 1996 11:46:53 +0100
    Received: (from gree0171@localhost) by sable.ox.ac.uk (1.6/8.6.12) id LAA18677;
              Fri, 28 Jun 1996 11:46:51 +0100
    Date: Fri, 28 Jun 1996 11:46:49 +0100 (BST)
    From: Neil Jenkins 
    To: guitar@nevada.edu
    Subject: the final version
    Message-ID: 
    MIME-Version: 1.0
    Content-Type: TEXT/PLAIN; charset=US-ASCII
    Content-Transfer-Encoding: QUOTED-PRINTABLE
    X-email-warning: As a cautionary note, there have been recent instances of
    	people forging mail addresses. If you have any reason to believe
    	this message is not authentic, please contact the listed sender or
    	System Computing Services at (702) 895-4585.
    Status: RO
    
    
    Forgive me but i was drunk yesterday
    I swear that this is really the last and most correct version i will send
    
    
    The final version
    
    
    Just by Radiohead
    
    rbullock had the intro and the distorted slide correct
    
    Intro/Clean:
    e-----------------------
    B-----------------------
    G-5-5-7-7-6-6-6-10-10-10
    D-5-5-7-7-6-6-6-10-10-10
    A-3-3-5-5-4-4-4-8--8--8-
    E-----------------------
    
    Distortion:
    e-----------------------------8-8-10-11-11-13-14-14-15-16-16
    B-----------------------------------------------------------
    G-5-5-7-8-8-10-11-11-13-14-14-5-5-7--8--8--10-11-11-13-14-14
    D-5-5-7-8-8-10-11-11-13-14-14-------------------------------
    A-3-3-5-6-6-8--9--9--11-12-12-------------------------------
    E-----------------------------------------------------------
    
    Here are a few additions
    The verse now starts
    E---5------------4-------------------6-----6--8-----8------------
    B---5------------4-------------------8-9------10--11-------------
    G---5------------5-------------------8--------10-----------------
    D---7------------6-------------------8--------10-----------------
    A---7------------6-------------------6--------8------------------
    E----5-----------4------------------6--------8------------------
            Can=D5t...........It=D5s been
    
    E---5------------4-------------------6---6-----6------------------
    B---5------------4-------------------8-9-------6---6-------------
    G---5------------5-------------------8---------7--8--------------
    D---7------------6-------------------8---------8-----------------
    A---7------------6-------------------6---------8-----------------
    E----5-----------4-------------------6---------6-----------------
           Comes...        Suckered you ..
    
    
    E----------------------------------------------------------------
    B----------------------------------------------------------------
    G-------7--9--9b-----7--------7--9--9b------7---------------
    D----9-----------9--------9-------------9-----5------6-------7------
    A----------------------------------------------5-----6-------7-----
    E----------------------------------------------3-----4-------5------
           one day he=D5ll........and teach you.....ho----ly------cow
    
    
    E-----------------3-----2-----0---------1------------1-------------
    B-----------------5-----2-------3-------1------------------0--------
    G-----------------5-----3---------------2--------------------------
    D-----------------5-----4---------------3---------------------------
    A-----------------3-----4---------------3--------------------------
    E-----------------3-----2---------------1---------------------------
    
    You do....self...........you do.........thats what really hurts
    
    REPEAT ONCE
    
    THEN INTRO/PRE VERSE UP-SLIDE
    
    THEN REPEAT VERSE
    =20
    BRIDGE IS=20
    
    E----------------------------------------------------------------
    B---17--17--15--13--13------16--15--13-13----12-13-12--10-11--10
    G---17--17--16--14-14-------17--15--13-13----12--------12-------
    D----------------------------------------------------------------
    A----------------------------------------------------------------
    E----------------------------------------------------------------
    
    repeat once
    
    
    E----------------------------------------------------------------
    B----------------------------------------------------------------
    G----------------------------------------------------------------
    D---5--5--5--5----4--4---4---4----3------------------------------
    A---5--5--5--5-----4--4--4--4-----3----------------------------
    E----3--3--3--3-----2--2--2--2-----1----------------------------
    
    
    
    THEN CHORUS AGAIN ETCETC
    
    there, wasn't that fun
    
    email me with comments    neil.jenkins@green.ox.ac.uk
    
    
    
    
    
        

    лекарство в аптеке
    список лекарств

    www.chel-reduktor.ru

    Продажа редукторов. Редукторы и электродвигатели

    chel-reduktor.ru








    О сайтеАккордыХит-парадПоискУроки ФорумыИщу песню
    ПрограммыСвежачок-сПодпискаСтатьи
    Яндекс.Метрика