Аккорды Король и Шут | Про Ивана гитара табулатуры уроки тексты песен Король и Шут текст lyrics песня аккорды песни ноты нота электрогитара струна  
   А Б В Г Д Е Ж З И К Л М Н О П Р С Т У Ф Х Ч Ш Ы Э Ю Я       Разные песни
1-9 A B C D E F G H I J K L M N O P Q R S T U V W Y Z      Все исполнители in english

    



группа Король и Шут, Аккорды песни Про Ивана

Продолжаем грести бабос на ботах в Telegram.
Только в этот раз есть вариант автоматизировать это дело, привлекая рефералов. Вы можете заработать если »

Группа: Король и Шут - другие аккорды (277),   о группе (10 статей),   диски (9),   фотографии (68)
Аккорды песни: Про Ивана
Просмотров: 4168




    

КиШ - Про Ивана

     G                               Em
  E|---------3---------------3---------------3---------------3-------|
  H|-----3-5-----5-3-----3-5-----5-------3-5-----5-3-----3-5-----5---|
  G|-4-----------------4-------------4-4---------------4-------------|
  D|-----------------------------------------------------------------|
  A|-----------------------------------------------------------------|
  E|-----------------------------------------------------------------|

     C                               D
  E|---------3---5-3-------5-3-------5---5-3-5---7-5---3---7-5---3---|
  H|-----3-5-----------5-3-------5-----------------------5-----------|
  G|-4---------------------------------------------------------------|
  D|-----------------------------------------------------------------|
  A|-----------------------------------------------------------------|
  E|-----------------------------------------------------------------|

     G        C    D  G            C   D
  в деревушке у реки как-то стали мужики
    G       Em           Am D
  Спорить кто из них мудре..eй.
   G            C   D     G             C   D
  Мимо старец проходил, "Тот умнее", - говорил, -
   G    Em         Am D
  "У кого усы длинне..ей".

   C     D     G          Em
    Решено, отныне будет так:
   C        D     G          Em
    всех умней у нас Иван-дурак.
   C         D      G    Hm   Em  D
    Меньше хвост у кумушки-лисы,
     C      D     G
    Чем у Ивана усы.

  Hа печи Иван сидел, сверху он на всех глядел,
  Пироги с капустой ел.
  Hу а после говорил: "Ум всегда со мною был,
  Я им хвастать не хотел...

    А теперь, скажу я вам, друзья,
    Жить как раньше больше нам нельзя,
    С вами, право, можно одичать,
    Пора веселиться начать".

  Что ни день, как Иван всЈ веселье затевал:
  "Жить давайте без забот..."
  всЈ б ничего, да вот беда - вскоре кончилась еда,
  Hикто работать не идЈт.

    время шло, народ оголодал,
    И Иван без крошки пропадал,
    А когда смекнули что к чему -
      C      D     G Hm  Em D
    Усы оторвали ему... Хвать!
      C      D     G
    Усы оторвали ему...




    

лекарство в аптеке
список лекарств






О сайтеАккордыХит-парадПоискУроки ФорумыИщу песню
ПрограммыСвежачок-сПодпискаСтатьи
Яндекс.Метрика