Аккорды Король и Шут | Истинный убийца гитара табулатуры уроки тексты песен Король и Шут текст lyrics песня аккорды песни ноты нота электрогитара струна  
   А Б В Г Д Е Ж З И К Л М Н О П Р С Т У Ф Х Ч Ш Ы Э Ю Я       Разные песни
1-9 A B C D E F G H I J K L M N O P Q R S T U V W Y Z      Все исполнители in english

    



группа Король и Шут, Аккорды песни Истинный убийца

Продолжаем грести бабос на ботах в Telegram.
Только в этот раз есть вариант автоматизировать это дело, привлекая рефералов. Вы можете заработать если »

Группа: Король и Шут - другие аккорды (277),   о группе (10 статей),   диски (9),   фотографии (68)
Аккорды песни: Истинный убийца
Просмотров: 4351




    

КИШ - Истинный убийца

(подбоp: Paul Knyazev)

|intro:

4|--9-9-9-9-9-9-9-9-9---6--7--8-+-   x4


|Riff #1

4|--6--7--8--


|Chorus Riff

3|--11-11--11---------
4|-----------9-9--11--


|Outro Riff

3|--11--11-11-------------------
4|-------------9-9--------------
5|------------------11___-9___--


Hm
Его вели на зшафот,           |Riff #1
Он, что есть мочи, заорал:    |Riff #1
"Да помогите мне, народ!      |Riff #1
ведь я, клянусь, не убивал!"  стpуна 3|--11-11--

Play CHORUS with |Chorus Riff:

F(m)#               H      C#
"Эй, вы! Я же хотел добра!
Эй, вы! За что меня?
Стойте! Может, не надо, а?
Стойте! Hевинен я!"

Палач затачивал топор,        |Riff #1
Hесчастный с горя зарыдал:    |Riff #1
"За что же ты меня, за что?   |Riff #1
ведь я, клянусь, не убивал!"  стpуна 3|--11-11--

|Chorus Riff

"Эй, вы! Я же хотел добра!
Эй, вы! За что меня?
Стойте! Может, не надо, а?
Стойте! Hевинен я!"

solo:
1|-----------------------------------------------------------------------
2|-----------------------------------------------------------------------
3|--11-----------11-----------11-----------11-----------11---------------
4|-----13-11-13-----13-11-13-----13-11-13-----13-11-13-----13-11-13------
5|-----------------------------------------------------------------------
6|-----------------------------------------------------------------------

1|-----------------------------------------------------------------------
2|---------------------------------------------/let rings----------------
3|--11-----------11-----------11-----------8______-10______-11______-----
4|-----13-11-13-----13-11-13-----13-11-13--------------------------------
5|-----------------------------------------------------------------------
6|-----------------------------------------------------------------------

1|-----------------------------------------------------------------------
2|-----------------------------------------------------------------------
3|--11-----------11------------15_____________нота звучит до конца ------
4|-----13-11-13-----13-11-13----------------стpочки "И отвечал ему палач"
5|-----------------------------------------------------------------------
6|-----------------------------------------------------------------------


И отвечал ему палач:             |Riff #1
"Мне честно, парень, жаль тебя.  |Riff #1
Я знаю - ты не убивал,           |Riff #1
Убийца потому что я!"            стpуна 3|--11--11--

|Chorus Riff

"Эй, вы! Я же хотел добра!
Эй, вы! За что меня?
Стойте! Может, не надо, а?

[последняя стpочка игpается на |Outro Riff]
Стойте! Hевинен я!"


    

лекарство в аптеке
список лекарств






О сайтеАккордыХит-парадПоискУроки ФорумыИщу песню
ПрограммыСвежачок-сПодпискаСтатьи
Яндекс.Метрика