Аккорды Король и Шут | Злодей и Шапка гитара табулатуры уроки тексты песен Король и Шут текст lyrics песня аккорды песни ноты нота электрогитара струна  
   А Б В Г Д Е Ж З И К Л М Н О П Р С Т У Ф Х Ч Ш Ы Э Ю Я       Разные песни
1-9 A B C D E F G H I J K L M N O P Q R S T U V W Y Z      Все исполнители in english

    



группа Король и Шут, Аккорды песни Злодей и Шапка

Продолжаем грести бабос на ботах в Telegram.
Только в этот раз есть вариант автоматизировать это дело, привлекая рефералов. Вы можете заработать если »

Группа: Король и Шут - другие аккорды (277),   о группе (10 статей),   диски (9),   фотографии (68)
Аккорды песни: Злодей и Шапка
Просмотров: 5234




    

КиШ - Злодей и шапка


     Hm
  E|-7-7---------10-10-| repeat
  H|-----8-8-7-7-------|
  G|-------------------|
  D|-------------------|
  A|-------------------|
  E|-------------------|


     Hm           (G)         Hm
  e|------------------------------|
  H|---------------------8-7------|
  G|-4--4---4--4---4-6-7------7---|
  D|------------------------------|
  A|------------------------------|
  E|------------------------------|

     Hm           (G)         Hm
  E|-----------------7-5-7--------|
  H|---------------7-------7--5---|
  G|-4--4---4--4------------------|
  D|------------------------------|
  A|------------------------------|
  E|------------------------------|

  Как-то некто на базар пришЈл,
  К самой первой лавке подошЈл:

     Hm
  E|-----------------|
  H|-----------------|
  G|-----------------|
  D|-----------------|
  A|-2-2---------5-5-| repeat
  E|-----3-3-2-2-----|

     Hm
  E|-----------------|
  H|-3---2-3---5-3-2-| repeat
  G|-----------------|
  D|-----------------|
  A|-----------------|
  E|-----------------|


  "Эй, продавец, ну-ка думай быстрей,
  Какую выбрать одежду мне в лавке твоей,
  Я по характеру - злой, моЈ стремление - власть,
  во мне горячая кровь, во мне свирепая страсть.

    Hm   G         A          D
    Я хочу, чтоб, видя облик мой,
    все меня обходили стороной,
      A          G
    Чтобы сразу понимали,
        A           C
    Кто я в душе такой."

  Торговец понял - дело непростое,
  Что бы зто предложить такое?
  "Я б не хотел тебя, приятель, обидеть,
  Hо такого, как ты, да лучше б вовсе не видеть,
  Я, кажется, знаю, что тебе подойдЈт,
  Твой горячий характер каждый сразу поймЈт".

    И старинный он сундук открыл,
    вынул шапку и проговорил:
    "в своЈ время сам великий
    Карл еЈ носил".

  "То, что надо," - злодей заулыбался,
  Hовой шапкой очень восхищался,
  ШЈл он домой, воображал и гордился,
  Перед зеркалом в спальне он весь вечер крутился,
  Hо, когда снял он шапку, с ним случилась беда -
  вместе с шапкой снялась и его голова.


     Hm      G     A        D
  E|----------------------------|
  H|-7---7---8---8-5--5-7-5-----| x2
  G|------------------------7---|
  D|----------------------------|
  A|----------------------------|
  E|----------------------------|


    "Я хочу, чтоб, видя облик мой,
    все меня обходили стороной..."


    

лекарство в аптеке
список лекарств






О сайтеАккордыХит-парадПоискУроки ФорумыИщу песню
ПрограммыСвежачок-сПодпискаСтатьи
Яндекс.Метрика