Табулатура Nofx | Hotdog In A Hallway гитара табулатуры уроки тексты песен Nofx текст lyrics песня аккорды песни ноты нота электрогитара струна  
   А Б В Г Д Е Ж З И К Л М Н О П Р С Т У Ф Х Ч Ш Ы Э Ю Я       Разные песни
1-9 A B C D E F G H I J K L M N O P Q R S T U V W Y Z      Все исполнители in english

    



группа Nofx, Табулатура песни Hotdog In A Hallway

Работа в Европе для граждан РФ, Украины, СНГ

  • минимальная зарплата $500.
  • виза и контракт на полгода, возможно продление
  • проживание оплачивает работодатель
  • нужен только загранпаспорт
  • оформление 190 €
  • данное предложение - отличная возможность эмигрировать в Европу и закрепиться здесь навсегда.

  • Мы свяжемся с Вами по WhatsApp или Viber и ответим на любые вопросы.
    на нашем сайте можно почитать подробнее »

    Группа: Nofx - другие аккорды (72),   диски (12),   фотографии (1)
    Табулатура песни: Hotdog In A Hallway
    Просмотров: 1377




        
    
    #----------------------------------PLEASE NOTE---------------------------------#
    #This file is the author's own work and represents their interpretation of the #
    #song. You may only use this file for private study, scholarship, or research. #
    #------------------------------------------------------------------------------#
    #
    
    
    From koch@hotmail.com Sun May  4 10:06:11 1997
    Date: Wed, 26 Mar 1997 04:25:20 -0800 (PST)
    From:  Christian  Koch 
    To: guitar@nevada.edu
    Subject: TAB: Hotdog in a Hallway by NOFX
    
      NOFX - Hotdog in a Hallway
                                     Christian Koch, dk
                                      koch@hotmail.com
    Hi all ya NOFX fans!
    This is the kewlest song on NOFX's newest album Heavy Petting Zoo and finally
    i figured out how to play it! Cuz all the other Hotdog..-tabs on OLGA was
    really bad (no offense!). Well if you find errors please mail me, so that i
    can correct them! Here we go......
    
    
    INTRO:    
    
    [dist, wahwah]
       A5 Bb5 A5 Bb5 A5
    e|-----------------xxxxxxxxxxxxx-|
    B|-----------------xxxxxxxxxxxxx-| 
    G|-----------------xxxxxxxxxxxxx-|  
    D|-7/(8)-7/(8)--7--xxxxxxxxxxxxx-|
    A|-7/(8)-7/(8)--7--xxxxxxxxxxxxx-|
    E|-5/(6)-5/(6)--5--xxxxxxxxxxxxx-|
      
    
    [clean]
        A5   C#5  D5   Bb5    A5   C#5  D5      
    e|---------------------|--------------------|
    B|---------------------|--------------------| 
    G|--------6----7-------|--------6----7------|  
    D|---7---6-6--7-7---8--|---7---6-6--7-7--xx-|
    A|--7-7-4----5-----8-8-|--7-7-4----5-----xx-|
    E|-5--------------6----|-5------------------|  
    
    VERSE: 
    
    [clean]
        A    C#   D    Bb
    e|-5-55-4-44-5-55-6666-|
    B|-5-55-6-66-7-77-6666-| 
    G|-6-66-6-66-7-77-5555-|  
    D|-7-77-6-66-7-77-8888-|
    A|-7-77-4-44-5-55-8888-|
    E|-5-55-----------6666-|
    
    [dist]
    
       A    C#/Bb D    Bb
    e|---------------------|
    B|---------------------| 
    G|------6-66-7-77------|  
    D|-7-77-6-66-7-77-8888-|
    A|-7-77-4-44-5-55-8888-|
    E|-5-55-4-44------6666-|
    
    Fill:
    
    e|-------------------|
    B|-------------------| 
    G|-------------------|  
    D|-8/(7)-------------|
    A|-8/(7)-------------|
    E|-6/(5)-------------|
    
    
    
    ---------------------------------------------------------
    Get Your *Web-Based* Free Email at http://www.hotmail.com
    ---------------------------------------------------------
    
        

    поиск лекарств
    список лекарств






    О сайтеАккордыХит-парадПоискУроки ФорумыИщу песню
    ПрограммыСвежачок-сПодпискаСтатьи
    Яндекс.Метрика